Oops, an error
Loading. Please wait.

Dentro I Miei Vuoti Acoustic tab

115 views 3 this week
no commentswrite comment
1 2 3 4 5
1 last vote to show rating
add to favorites
×
Save as Personal and add changes to this tab that will be seen only by you. Learn more ›
×
You can save this tab as Personal to edit and correct it or add notes. All changes will be seen only by you. Learn more »
launch autoscroll
font size
0
reset
how to read this tab
guitar tuner
edit
Autoscroll
slow
fast
+/-
esc
set tempo
stop
About this tab version
The studio version was recorder 2 whole steps and half up then acustic version so if you want play over the album song you have to move all chords 5 freet forward. However this is an arrangment for an acustic guitar, in studio version the 2 low notes of each chords are played by bass and guitar play only the others (except Dm(2)). Was this info helpful? Yes No
Subsonica - Dentro i miei vuoti arpeggio (Acustic)

Album : Amorematico (2002)
Tempo : 117
E-mail: newnoise.tab@libero.it
Tabbed by: NewNoise

Subsonica - Dentro i miei vuoti acustic version: https://www.youtube.com/watch?v=P1DhOT1wHVU

La versione dell'album della canzone è suonata 2 toni e mezzo più in alto rispetto alla versione acustica,
se volete suonare sopra al disco dovete spostare tutti gli accordi 5 tasti piu avanti.
In ogni caso questo è un arrangamento per suonare la canzone con una sola chitarra, sul disco (nell'intro,
nella strofa e nell'outro) le due note piu basse di ogni accordo (escluso il Dm(2)) vengono suonate dal basso
mentre la chitarra suona solo le altre note.
Questa è la versione suonata da Samuel in video per salutare i subsonica dopo l'ultima data del tour dei
20 anni. Trovate il video su youtube: https://www.youtube.com/watch?v=P1DhOT1wHVU

[Intro]

     Dm           Bb              G               Bb

e|--------8-5---------8-6---------------5-3-----------8-6---------|
B|------6-----------6-----6-----------3-----3-------6-----6-------|
G|----7-----------7-----------------4-------------7---------------|
D|------------7---------------------------------------------------|
A|--5-----------------------8/5---------------5-------------8/3---|
E|--------------6---------------3---------------6-----------------|

    F               G               Dm(2)

e|--------3-----3---------5-----5---------5---|
B|------1---1-----1-----3---3-----3-------6---|
G|----2-------2-------4-------4---------7-----|
D|------------------------------------7-------|
A|----------------------------------5---------|
E|--1---------------3-------------------------|


[Verse]

     Dm           Bb              G               Bb

e|--------8-5---------8-6---------------5-3-----------6-6---------|
B|------6-----------6-----6-----------3-----3-------6-----6-------|
G|----7-----------7-----------------4-------------7---------------|
D|------------7---------------------------------------------------|
A|--5-----------------------8/5---------------5-------------8-----|
E|--------------6---------------3---------------6-----------------|

     Dm           Bb              G               Bb

e|--------8-5---------8-6---------------5-3-----------8-6---------|
B|------6-----------6-----6-----------3-----3-------6-----6-------|
G|----7-----------7-----------------4-------------7---------------|
D|------------7---------------------------------------------------|
A|--5-----------------------8/5---------------5-------------8-----|
E|--------------6---------------3---------------6-----------------|

     Dm           Bb              G               Bb

e|--------8-5---------8-6---------------5-3-----------8-6---------|
B|------6-----------6-----6-----------3-----3-------6-----6-------|
G|----7-----------7-----------------4-------------7---------------|
D|------------7---------------------------------------------------|
A|--5-----------------------8/5---------------5-------------8/3---|
E|--------------6---------------3---------------6-----------------|

    F               G               Dm(2)

e|--------3-----3---------5-----5---------5---|
B|------1---1-----1-----3---3-----3-------6---|
G|----2-------2-------4-------4---------7-----|
D|------------------------------------7-------|
A|----------------------------------5---------|
E|--1---------------3-------------------------|


[Break]


[Verse]

     Dm           Bb              G               Bb

e|--------8-5---------8-6---------------5-3-----------8-6---------|
B|------6-----------6-----6-----------3-----3-------6-----6-------|
G|----7-----------7-----------------4-------------7---------------|
D|------------7---------------------------------------------------|
A|--5-----------------------8/5---------------5-------------8-----|
E|--------------6---------------3---------------6-----------------|

     Dm           Bb              G               Bb

e|--------8-5---------8-6---------------5-3-----------8-6---------|
B|------6-----------6-----6-----------3-----3-------6-----6-------|
G|----7-----------7-----------------4-------------7---------------|
D|------------7---------------------------------------------------|
A|--5-----------------------8/5---------------5-------------8-----|
E|--------------6---------------3---------------6-----------------|

     Dm           Bb              G               Bb

e|--------8-5---------8-6---------------5-3-----------8-6---------|
B|------6-----------6-----6-----------3-----3-------6-----6-------|
G|----7-----------7-----------------4-------------7---------------|
D|------------7---------------------------------------------------|
A|--5-----------------------8/5---------------5-------------8/3---|
E|--------------6---------------3---------------6-----------------|

    F               G               Dm(2)

e|--------3-----3---------5-----5-----------5-----5---5-5---|
B|------1---1-----1-----3---3-----3-------6---6-----6-6-6---|
G|----2-------2-------4-------4---------7-------7-----7-7---|
D|------------------------------------7---------------7-7---|
A|----------------------------------5-----------------5-5---|
E|--1---------------3---------------------------------------|


[Chorus]

    F    G    Dm   Bb     F    G    Dm   Bb

e|--1----3----5----6---|--1----3----5----6---|
B|--1----3----6----6---|--1----3----6----6---|
G|--2----4----7----7---|--2----4----7----7---|
D|--3----5----7----8---|--3----5----7----8---|
A|--3----5----5----8---|--3----5----5----8---|
E|--1----3---------6---|--1----3---------6---|

    F    G     A    Dm   Bb

e|--1----3-----5-----5----6---|     In questa parte Samuel dopo aver suonato il SOL fa un passaggio
B|--1----3-----5-----6----6---|     veloce sul LA per andare sul Re minore, io l'ho trascritto ma anche
G|--2----4-----6-----7----7---|     questo giro si puo suonare saltando il LA come nel resto del ritornello
D|--3----5-----7-----7----8---|     In this part Samuel after playing G makes a quick pass on A to go to Dm,
A|--3----5-----7-----5----8---|     I trascribed it but can be skipped and you can play "F G Dm Bb" like
E|--1----3-----5----------6---|     the rest of the chorus

    F    G    Dm   Bb     F    G    Dm   Bb     F    G    Dm   Bb      G

e|--1----3----5----6---|--1----3----5----6---|--1----3----5----6---|---3---|
B|--1----3----6----6---|--1----3----6----6---|--1----3----6----6---|---3---|
G|--2----4----7----7---|--2----4----7----7---|--2----4----7----7---|---4---|
D|--3----5----7----8---|--3----5----7----8---|--3----5----7----8---|---5---|
A|--3----5----5----8---|--3----5----5----8---|--3----5----5----8---|---5---|
E|--1----3---------6---|--1----3---------6---|--1----3---------6---|---3---|

    Dm   Bb   F    G

e|--5----9----1----3---|
B|--6----6----1----3---|
G|--7----7----2----4---|
D|--7----8----3----5---|
A|--5----8----3----5---|
E|-------6----1----3---|


[Break]


[Outro]

     Dm           Bb              G               Bb
e|--------8-5---------8-6---------------5-3-----------8-6---------|
B|------6-----------6-----6-----------3-----3-------6-----6-------|
G|----7-----------7-----------------4-------------7---------------|
D|------------7-------------------4-------------------------------|
A|--5-----------------------8/5---------------5-------------8-----|
E|--------------6---------------3---------------6-----------------|

     Dm           Bb              G               Bb

e|--------8-5---------8-6---------------5-3-----------8-6---------|
B|------6-----------6-----6-----------3-----3-------6-----6-------|
G|----7-----------7-----------------4-------------7---------------|
D|------------7-------------------4-------------------------------|
A|--5-----------------------8/5---------------5-------------8/3---|
E|--------------6---------------3---------------6-----------------|

    G               F               Dm

e|--------3-----3---------5-----5---------5---|
B|------1---1-----1-----3---3-----3-------6---|
G|----2-------2-------4-------4---------7-----|
D|------------------------------------7-------|
A|----------------------------------5---------|
E|--1---------------3-------------------------|

--------------------------------------------------------------------------------------------------------------
Subsonica - Dentro i miei vuoti acustic version: https://www.youtube.com/watch?v=P1DhOT1wHVU

[Intro]
Dm Bb G Bb G F Dm(2)

[Verse]
Dm        Bb          G      Bb
  Impalcature spartitraffico,
Dm         Bb         G      Bb
  fari alonati blu monossido
Dm         Bb           G      Bb
  Due solitudini si attraggono:
F    G     Dm(2)
    tu chi sei?

[Break]

[Verse]
Dm             Bb          G     Bb
  Come due intrusi che sorvolano
Dm           Bb          G     Bb
  le tangenziali dell'intimità
Dm          Bb             G      Bb
  Fiutando diffidenze e affinità.
F    G    Dm(2)
    Resta qui!

[Chorus]
F      G                Dm          Bb
    Se c'è un motivo trovalo con me
F             G               Dm         Bb
    Senza ingranaggi senza chiedere perché.
F        G                  (A) Dm      Bb
    Dentro i miei vuoti puoi    nasconderti,
F            G         Dm            Bb
    Le tue paure addormentale con me
F            G         Dm            Bb
    Le tue paure addormentale con me
F            G         Dm            Bb   G
    Le tue paure addormentale con me
Dm           Bb
F                   G
    Se c’è un motivo

[Outro]
Dm Bb G Bb
Dm Bb G Bb G F Dm(2)





            
            
Suggest correction
Creating personal tab
Creating personal tab
You can edit any tab online and save it as your Personal.

You can edit, replace or remove any tab part or add personal notes – all changes will be seen only by you.

Personal tabs can be accessed anytime from any device, even offline.
Learn more »
Give kudos to tab author, rate the tab!
1 2 3 4 5
comments
print report bad tab
guest
You may want to rate the tab now too:
select rating
Wanna post a correction for this tab? Suggest correction