Oops, an error
Loading. Please wait.

Janitor tab

version 1
version 1

Whole song

  • Has not been tabbed yet.....
  • Added solo and fixed both riffs.
808 views 42 this week
1 commentread comment
1 2 3 4 5
x 4
add to favorites
×
Save as Personal and add changes to this tab that will be seen only by you. Learn more ›
×
You can save this tab as Personal to edit and correct it or add notes. All changes will be seen only by you. Learn more »
launch autoscroll
font size
0
reset
how to read this tab
guitar tuner
edit
Autoscroll
slow
fast
+/-
esc
set tempo
stop
About this tab version
Has not been tabbed yet..... Was this info helpful? Yes No
SUBURBAN LAWNS - JANITOR
------------------------
     Tabbed by Neil

[The intro]
Most of the song is just A and F# power chords and the verse palm mutes them, picked like so:
e|-----------------|-----------------|-----------------|-----------------|
B|-----------------|-----------------|-----------------|-----------------|
G|-----------------|-----------------|-----------------|-----------------|
D|-----------7-----|-----------7-----|-----------4-----|-----------4-----|
A|-7-----7-7-------|-7-----7-7-------|-4-----4-4-------|-4-----4-4-------|
E|-5-----5-5-------|-5-----5-5-------|-2-----2-2-------|-2-----2-2-------|

Boom boom boom boom...
[Pre-Chorus Lead Riff] (Who's your mother)
e|---------------------------------------------------------------------------|
B|---------------------------------------------------------------------------|
G|---------------------------------------------------------------------------|
D|--7---6-7-6--4---------------------4-6---7---6-7-6--4----------------------|
A|---------------4------2-4-2-4-------------------------4-----2-4-2-4--------|
E|------------------------------2------------------------------------2-------|

[Chorus]
Still A and F# minor rhythm, but it goes to an E major power chord right before the mini solo
that leads back into the verse. The lead guitar does something like this:
e|-9----12-9--9--9---9--|-9----12-9--9--9------|-9--\-------5-----|-9--\-------5-----|
B|-10------9-10-10---10-|-10------9-10-10------|-10-\-------7-----|-10-\-------7-----|
G|----------------------|----------------------|------------------|------------------|
D|----------------------|----------------------|------------------|------------------|
A|----------------------|----------------------|------------------|------------------|
E|----------------------|----------------------|------------------|------------------|


*************************

| \  Slide down

*************************
Suggest correction
Creating personal tab
Creating personal tab
You can edit any tab online and save it as your Personal.

You can edit, replace or remove any tab part or add personal notes – all changes will be seen only by you.

Personal tabs can be accessed anytime from any device, even offline.
Learn more »
comments
print report bad tab
1 comment total.
0 reply
macjm12 999 May 29, 2017 12:18 PM

A and F# is correct but most of this is incorrect, I'm going to make a new tab

guest
Wanna post a correction for this tab? Suggest correction