Oops, an error
Loading. Please wait.

Forever In The Friendzone Chords

16 views 3 this week
no commentswrite comment
1 2 3 4 5
3 more votes to show rating
add to favorites
launch autoscroll
font size
0
reset
transpose
0
reset
display chords
guitar tuner
Autoscroll
slow
fast
+/-
esc
set tempo
stop
Help us to improve Ultimate-Guitar.com Take our survey!
×
Author
Difficulty
intermediate
[Intro]
e|--------------------------------------------------------|
B|--------------------------------------------------------|
G|--5--5--5-5--5------------------------------5-5-x-x-x-x-|
D|--5--5--5-5--5--7--7--5-5--5--3--3--5-5--5--5-5-x-x-x-x-| 3x
A|--3--3--2-2--2--7--7--5-5--5--3--3--5-5--5--3—3-x-x-x-x-|
E|----------------5--5--3-3--3--1--1--3-3--3--------------|

e|------------------------------------------|
B|------------------------------------------|
G|--5--5--5-5--5------------------------5---|
D|--5--5--5-5--5--7--7--5-5--5--3---5---5---|
A|--3--3--2-2--2--7--7--5-5--5--3---5---3—--|
E|----------------5--5--3-3--3--1---3-------|


[Verse 1]
C
 You're my best friend
               G
But I wanna be more than this
                         F
You know I'd do anything for your kiss

But I'm stuck in a position
    G
The worst condition

My current situation with you
C                                G
 End up on the wrong side of the road

Wrong turn, bridge burned
                  F
Now we're far too close
                                     G
When I see you with a guy my heart explodes, is that just how it 


[Prechorus]
    G
    goes?    Whoo-hoo-hooo
e|---------------------------|
B|---------------------------|
G|---------------------------|
D|--5-5---------------3-3----|
A|--5-5---------------3-3----|
E|--3-3---------------1-1----|

  I just wanna get you girl
e|-----------------|
B|-----------------|
G|--7b---5-----5---|
D|----------7------|
A|-----------------|
E|-----------------|
F
But oh no
G
These are the breaks you'll never know


[Chorus]
C            G                   Am
I'll be your best friend here forever
       F                C
(But I wanna be more to you)
              G               Am
Too scared to say "We'll be together"
    F                   C
(So you should know the truth)
            G                  Am
The truth is, got everything I need right here
F            C
 (Except for you)
           G                F    G
I'm giving up, I'll call it home

Forever in the friendzone


e|--------------------------------------------------------|
B|--------------------------------------------------------|
G|--5--5--5-5--5------------------------------5-5-x-x-x-x-|
D|--5--5--5-5--5--7--7--5-5--5--3--3--5-5--5--5-5-x-x-x-x-|
A|--3--3--2-2--2--7--7--5-5--5--3--3--5-5--5--3—3-x-x-x-x-|
E|----------------5--5--3-3--3--1--1--3-3--3--------------|

e|------------------------------------------|
B|------------------------------------------|
G|--5--5--5-5--5------------------------5---|
D|--5--5--5-5--5--7--7--5-5--5--3---5---5---|
A|--3--3--2-2--2--7--7--5-5--5--3---5---3—--|
E|----------------5--5--3-3--3--1---3-------|


[Verse 2]
C
 Another weekend
                        G
You got me holding your purse again
                       F
Watching you trying on clothes for him

Sitting here trying to pretend
                      G
No one knows that I'm so infatuated with you
C                                           G
Talk, talk, just keep on talking about your boyfriends
                          F
Always talkin' about your boyfriends
           G
What about me? Is that just how it (goes?)

[Pre-Chorus]
    goes?    Whoo-hoo-hooo
e|---------------------------|
B|---------------------------|
G|---------------------------|
D|--5-5---------------3-3----|
A|--5-5---------------3-3----|
E|--3-3---------------1-1----|

  I just wanna get you girl
e|------------------|
B|------------------|
G|--7b---5-----5----|
D|----------7-------|
A|------------------|
E|------------------|
F
But oh no
G
These are the breaks you'll never know


[Chorus]
C            G                   Am
I'll be your best friend here forever
       F                C
(But I wanna be more to you)
              G               Am
Too scared to say "We'll be together"
    F                   C
(So you should know the truth)
            G                  Am
The truth is, got everything I need right here
F            C
 (Except for you)
           G                F     G
I'm giving up, I'll call it home
N.C.
Forever in the friendzone
Forever in the friendzone


[Bridge](listen to the rhythm and muted notes I didn’t put in)
N.C.
           You don't know you build me up
e|-------------------------------------------|
B|-------------------------------------------|
G|-------------------------------------------|
D|-------------------------------------------|
A|-------3-----3-----2----2-----—------------|
E|-3-5-3----------------------5----5---3---3-|
       Never know you let me down (let me down)
e|-------------------------------------------|
B|-------------------------------------------|
G|-------------------------------------------|
D|-------------------------------------------|
A|--------------------3---3--3-—-------------|
E|-1---1-----3----3---------------3--5--3----|
        I'll be there to pick you up
e|-------------------------------------|
B|-------------------------------------|
G|-------------------------------------|
D|-------------------------------------|
A|--3---3----2--2-----—----------------|
E|-----------------------5----5---3----|
   When your boyfriend's messing around (Stop messing around)
e|--------------------------------------------|
B|--------------------------------------------|
G|--------------------------------------------|
D|--------------------------------------------|
A|--------------------------—-------3---------|
E|-3---------1--1--------3-------3------3-5-3-|
      You are the best of me, I'll never let go (let go)
e|-----------------------------------------------------|
B|-----------------------------------------------------|
G|-----------------------------------------------------|
D|-----------------------------------------------------|
A|-3--3---2----2-----—-----------------------3---------|
E|----------------5----5-3----3----1-1---3------3-5-3--|
      I'm with you now and forever trapped in the friendzone
e|---------------------------------------------------------|
B|---------------------------------------------------------|
G|---------------------------------------------------------|
D|-----------------------------------------3------3-----5--|
A|-3--3---2----2-----—---------------------3------3-----5--|
E|-----------------5----5-----3----3-------1------1-----3-—|
N.C.
I'll be your best friend here forever
(But I wanna be more to you)
                            C C G
Too scared to say "We'll be together"
C             G                  Am
  The truth is, got everything I need right here
F            C
 (Except for you)
           G                F
I'm giving up, I'll call it home

Forever in the friendzone
C    G    Am      F
 I... I... I'm forever in the friend zone
C    G    Am      F
 I... I... I'm forever in the friend zone
C             G                 Am
 The truth is, got everything I need right here
F            C
 (Except for you)
           G                F    G
I'm giving up, I'll call it home
Forever in the friendzone

e|--------------------------------------------------------|
B|--------------------------------------------------------|
G|--5--5--5-5--5------------------------------5-5-x-x-x-x-|
D|--5--5--5-5--5--7--7--5-5--5--3--3--5-5--5--5-5-x-x-x-x-|
A|--3--3--2-2--2--7--7--5-5--5--3--3--5-5--5--3—3-x-x-x-x-|
E|----------------5--5--3-3--3--1--1--3-3--3--------------|

e|------------------------------------------|
B|------------------------------------------|
G|--5--5--5-5--5------------------------5---|
D|--5--5--5-5--5--7--7--5-5--5--3---5---5---|
A|--3--3--2-2--2--7--7--5-5--5--3---5---3—--|
E|----------------5--5--3-3--3--1---3-------|
Suggest correction
Give kudos to tab author, rate the tab!
1 2 3 4 5
comments
print report bad tab
guest
You may want to rate the tab now too:
select rating
Wanna post a correction for this tab? Suggest correction