Oops, an error
Loading. Please wait.

I Want More Chords

7 views 3 this week
no commentswrite comment
1 2 3 4 5
3 more votes to show rating
add to favorites
launch autoscroll
font size
0
reset
transpose
0
reset
display chords
guitar tuner
Autoscroll
slow
fast
+/-
esc
set tempo
stop
Help us to improve Ultimate-Guitar.com Take our survey!
×
Author
Difficulty
novice
[Intro Part 1]
Bass plays B. Then guitar on Bm
[Part 1]
   A        Bm          A        Bm             A
e|-------|----------------------------------------------------|
B|-------|o-0------------------------------------------------o|
G|-2---1-|-----2--0-------------------------0---2---1----0-2--|2x
D|-------|o---------4-2-0--0-----------0--2-------------4----o|
A|-------|--------------------2--0--2-------------------------|
E|-------|----------------------------------------------------|
   Bm           A         Bm         G      A      D
e|----------------------------------------------|---------|  |------|
B|-0--------------------------------------------|o-------o|  |------|
G|----2--0---------------------------0-0----2-2-|---------|3x|-0----|
D|----------4-2-0--0-----------0--2-------------|o-0--2-4o|  |----4-|
A|---------------------2--0--2------------------|---------|  |------|
E|----------------------------------------------|---------|  |------|

[Intro Part 2]
                 A          Bm                     G        A
e|--------------------------------------------------------------|
B|--------3--2-0-2----------0---0-2-0---0---0-2-0--3--0---------|
G|------2-----------2---------2-----------2-------------2-0---2-|
D|-0--4----------------4------------------------------------4---|
A|--------------------------------------------------------------|
E|--------------------------------------------------------------|
   D      A                 Bm                     G    A     D
e|--------------------------------------------------------------|
B|--------3--2-0-2----------0---0-2-0---0---0-2-0--0----3--2--3-|
G|------2-----------2---------2-----------2---------------------|
D|-0--4----------------4----------------------------------------|
A|--------------------------------------------------------------|
E|--------------------------------------------------------------|

e|----5-------------|
B|-7----7-----------|
G|--------7----7~---|
D|----------7--7~---|
A|-------------5~---|
E|------------------|


[Verse 1]
D                                                    Bm
   Again we're stuck in gear and lost, but you don't care
                   G                      D
How can it be that we've agreed to start again

Agreed that maybe this time it'll be the end
                                                     Bm
It's just a state of mind and you are looking at the ground
             G                       D
But it's not raining, look at the sky
                              A
But it's hard when you're not looking very high


[Chorus]
D                          A
   I wanted everything but this
                        Bm
When all I want is happiness
                        G       A      D
Alone in life, Alone in love (I wanted more)

You show the side of you that's not
                            Bm
The side of you, you show a lot
                        D
All I want is something else to hold onto


Intro Part 2


[Verse 2]
D                                        Bm
   I sit here all alone writing words to show
                 G                       D
The thoughts and feelings I have towards you

Have we come this far just to figure out there's nothing new between us
                                               Bm
I used to fall apart and wait for that fire to spark
             G             D
But now it's over I know I lost
             A
It's just so easy to break


[Chorus] (change at end)
                       Bm   D   Bm   A
But you're not letting go


[Bridge]
Bm
 I sit back and watch the sunset Nothing else could ever calm me down
I write words of so sweet breath
   A
Composed to make your world go 'round
Bm
 I like things that make me smile Your personality can't give me that
And when you frown I think of why we'll
  D          A
Never be the same (she told me)
Bm              G          F#m  Bm
   It's not cool to play ska music
        A   G   A
It's not coooooool
Bm              G          F#m  Bm
   It's not cool to play ska music
        A   G
It's not coool
Bm                  G       F#m         Bm
"I don't ever wanna be like this" And besides
I pulled the microphone from her lips and said, She told me I don't date guys in a band
Bm          A
Ska doesn't pay
Bm
Ooooo It's not cool
G        F#m      Bm
  To play ska music
            G  A
But I do it anyway


[Chorus]
D                          A
   I wanted everything but this
                        Bm
When all I want is happiness
                        G       A      D
Alone in life, Alone in love (I wanted more)

You show the side of you that's not
                            Bm
The side of you, you show a lot
                        D
All I want is something else to hold onto


[Outro]
    D        G
Cuz I wanted more than this
Bm                 G       A
Times are changing stop complaining
D            A
It's not the person you have left behind
   Bm                       G       A        D
Maybe I'm someone else that you can live without
Suggest correction
Give kudos to tab author, rate the tab!
1 2 3 4 5
comments
print report bad tab
guest
You may want to rate the tab now too:
select rating
Wanna post a correction for this tab? Suggest correction