Oops, an error
Loading. Please wait.

Silent Rain Bass Tab

241 views 1 this week
no commentswrite comment
1 2 3 4 5
3 more votes to show rating
add to favorites
launch autoscroll
font size
0
reset
guitar tuner
Autoscroll
slow
fast
+/-
esc
set tempo
stop
Help us to improve Ultimate-Guitar.com Take our survey!
×
Author
Silent Rain - Suburban Tribe Bass.


Tuning : C# G# C# F#

INTRO
F#-10-10-10--10-10-10--10-10--10--999-999-99-9-------------------------------|
C#---------------------------------------------------------------------------|
G#---------------------------------------------------------------------------|
C#---------------------------------------------------------------------------|

VERSE
F#---------------------------------------------------------------------------|
C#---------------------------------------------------------------------------|
G#---------------------------------------------------------------------------|
C#-777-777-77-7b-555-555-55-5b-333-33-0-0-0--0-------------------------------|

CHORUS
F#---------------------------------------------------------------------------|
C#---------------------------------------------------------------------------|
G#-------------------------------1-111111-00000000---------------------------|
C#-3--3-3-3-3-3-3-0--0-0-0-0-0-0---------------------------------------------|

GUIDAR SOLO
F#---------------------------------------------------------------------------|
C#---------------------------------------------------------------------------|
G#---------------------------------------------------------------------------|
C#-3--3-3-3-3-3-3-3-0--0-0-0-0-0-0-slide down--------------------------------|
Suggest correction
Give kudos to tab author, rate the tab!
1 2 3 4 5
comments
print report bad tab
guest
You may want to rate the tab now too:
select rating
Wanna post a correction for this tab? Suggest correction