Oops, an error
Loading. Please wait.

Silent Rain Tab

1,023 views 1 this week
no commentswrite comment
1 2 3 4 5
please rate
add to favorites
launch autoscroll
font size
0
reset
how to read this tab
guitar tuner
Tab Pro tools
  • play this tab
  • loop segment
  • change instrument
  • show fretboard
  • metronome
×
Best way to learn
"Silent Rain"
Autoscroll
slow
fast
+/-
esc
set tempo
stop
Contributor
Suburban Tribe - Silent Rain - Manimal - Tuning : D#G#C#F#A#D#

Intro
D#--------------------------------------------------------------------------|
A#--------------------------------------------------------------------------|
F#--------------------------------------------------------------------------|
C#-333-333-33-3-222-222-22-2------------------------------------------------|
G#-000-000-00-0-000-000-00-0------------------------------------------------|
D#--------------------------------------------------------------------------|

D#--------------------------------------------------------------------------|
A#-10-12-13--10-12-13-10-12-------------------------------------------------|
F#--------------------------------------------------------------------------|
C#--------------------------------------------------------------------------|
G#--------------------------------------------------------------------------|
D#--------------------------------------------------------------------------|

D#-------------------------------------------------------------------------|
A#-------------------------------------------------------------------------|
F#-------------------------------------------------------------------------|
C#--4x--777-777-77----|-555-555-55----333-33--777-7------------------------|
G#------777-777-77----|-555-555-55----333-33--555-5------------------------|
D#------555-555-55-5b-|-333-333-33-3b-111-11--555-5------------------------|
                                              xxx
VERSE
D#--------------------------------------------------------------------------|
A#--------------------------------------------------------------------------|
F#--------------------------------------------------------------------------|
C#------777-777-77----|-555-555-55----333-33-777-7--------------------------|
G#--4x--777-777-77----|-555-555-55----333-33-555-5--------------------------|
D#------555-555-55-5b-|-333-333-33-3b-111-11-555-5--------------------------|
        xxx xxx xx      xxx xxx xx    xxx xx xxx

D#---------------------|
A#---------------------|
F#---------------------|
C#-777-777-77-7-77777--|
G#-555-555-55-5-55555--|
D#-555-555-55-5-55555--|
   XXX XXX XX 

Chorus
D#-------------------------------------------------------------------------|
A#-------------------------------------------------------------------------|
F#-------------------------------------------------------------------------|
C#-3-3333333-5-5555555-3-3333333-22222222----------------------------------|
G#-3-3333333-3-3333333-1-1111111-00000000----------------------------------|
D#-1-1111111-3-3333333-1-1111111-00000000----------------------------------|

D#--------------------------------------------------------------------------|
A#--------------------------------------------------------------------------|
F#--------------------------------------------------------------------------|
C#-3-333333-5-555555-3-333333-3333333---------------------------------------|
G#-3-333333-3-333333-1-111111-3333333---------------------------------------|
D#-1-111111-3-333333-1-111111-1111111---------------------------------------|

Before Solo
D#---------------------------|
A#---------------------------|
F#---------------------------|
C#-7-7777777--3333333333-----|
G#-5-5555555--1111111111-----|
D#-5-5555555--1111111111-----|
              XXXXXXXXXX
Solo
D#-------------------------------------------------------------------------|
A#-66666666666-888888-5555555555-------------------------------------------|
F#------------------------------777----------------------------------------|
C#-------------------------------------------------------------------------|
G#-------------------------------------------------------------------------|
D#-------------------------------------------------------------------------|

D#------------------------------------------------|
A#------------------------------------------------|
F#------------------------------------------------|
C#-3-33333333-5-55555555-3-33333333-2-2222222-----|
G#-3-33333333-3-33333333-1-11111111-0-0000000-----|
D#-1-11111111-3-33333333-1-11111111-0-0000000-/10-|
comments
We did not receive enough feedback on this tab! Please rate:
print report bad tab
1 2 3 4 5
I want to post or [tab]
guest
You may want to rate the tab now too:
select rating
Please do not post tabs as comments. Select "correction" instead!