Oops, an error
Loading. Please wait.

Versteckt tab

1,469 views 3 this week
no commentswrite comment
1 2 3 4 5
2 more votes to show rating
add to favorites
×
Save as Personal and add changes to this tab that will be seen only by you. Learn more ›
×
You can save this tab as Personal to edit and correct it or add notes. All changes will be seen only by you. Learn more »
launch autoscroll
font size
0
reset
how to read this tab
guitar tuner
edit
Autoscroll
slow
fast
+/-
esc
set tempo
stop
Author
Difficulty
-------------------------------------------------------------------------------
                          Subway to Sally - Versteckt
-------------------------------------------------------------------------------
Tabbed/Chords by: SirCotare
Email: sircotare@3025-game.de
Creative-Commons License: http://creativecommons.org/licenses/by-nc-sa/3.0/at/

Tuning: EADGBE
Capo @ 1st fret

NOTE: I skipped the guitar harmonics at the beginning and the end.
      Also after having this tab finished for over a year now and just can't
      figure out the real intro part, I skipped that too...


Em7: keep the B string open
||-----|-----|--x--|----|
||-----|-----|-----|----|
||-----|-----|-----|----|
||-----|--x--|-----|----|
||-----|--x--|-----|----|
||-----|-----|-----|----|



INTRO:
(I found this on YouTube; seems like a good an easy beginning for the song)
------0-0----0-3-5-----0-3-0--|--
------1-1----1-3-5-----1-3-1--|--
------------------------------|--
------------------------------|--
---0-------0--------0---------|--
------------------------------|--
|>                      <= x2 |


VERSE:
--------0--------|-----0--------------------0---------|----------0-----0--|--
--------1-----3--|-----1--------3---------1---1----3--|--------0---0---0--|--
--------------x--|--------------0-------2-------2--x--|------0-------0-0--|--
--------------4--|---------------------------------4--|----------------2--|--
-----0-----0--5--|--3-----3--2-----2--0------------5--|--3-2-----------2--|--
--0--------------|------------------------------------|----------------0--|--
|>                                                                   <= 2x|
1. Du hast mich gesucht, heute Morgen am Meer, im Seetang und zwischen den Steinen.
2. Doch fandest du nur einen silbernen Fisch, sein Tod ließ dich bitterlich weinen.


PRE-CHORUS:
   Em7                       Cadd9
Du hast mich gesucht, in dem Haus auf dem Fels,
   Em7                    Cadd9
im Keller, in Zimmern und Kammern.
   Em7                     Cadd9
Du fandest nur Staub, doch keinerlei Grund,

--------0------|--------0------|--------0-----0--|--
------1---1----|------0---0----|------0---0---0--|--
----0-------0--|----0-------0--|----0-------0-0--|--
---------------|---------------|--------------2--|--
--3------------|--2------------|--------------2--|--
---------------|---------------|--0-----------0--|--
dich an deine Hoffnung zu klammern.


CHORUS:
   Am                F9          Em            F9
Du kannst mich nicht finden, ich hab mich versteckt,
    Am        F9        Dm         C
ich hab deine Augen mit Schatten bedeckt.
   Am                F9         Em                F9
Du kannst mich nicht finden, du kannst mich nicht sehn.
    Am        F9          Dm           C
Schließ deine Augen, zähl noch mal bis zehn.
 G           Am
Noch mal bis zehn.


VERSE:
--------0--------|-----0--------------------0---------|----------0-----0--|--
--------1-----3--|-----1--------3---------1---1----3--|--------0---0---0--|--
--------------x--|--------------0-------2-------2--x--|------0-------0-0--|--
--------------4--|---------------------------------4--|----------------2--|--
-----0-----0--5--|--3-----3--2-----2--0------------5--|--3-2-----------2--|--
--0--------------|------------------------------------|----------------0--|--
|>                                                                   <= 2x|
1. Du hast mich bei Freunden und Feinden gesucht, hast Dichter und Richter bestochen.
2. Doch diese und jene war'n ratlos wie du, nun zählst du die Tage und Wochen.


PRE-CHORUS:
   Em7                 Cadd9
Du hast alle Hexen und Magier befragt,
    Em7                 Cadd9
sie lasen in Kugeln und Sternen,
     Em7                    Cadd9
doch falsche Propheten, die finden mich nie,

--------0------|--------0------|--------0-----0--|--
------1---1----|------0---0----|------0---0---0--|--
----0-------0--|----0-------0--|----0-------0-0--|--
---------------|---------------|--------------2--|--
--3------------|--2------------|--------------2--|--
---------------|---------------|--0-----------0--|--
solang sie das Suchen nicht lernen.


CHORUS:
   Am                F9          Em            F9
Du kannst mich nicht finden, ich hab mich versteckt,
    Am        F9        Dm         C
ich hab deine Augen mit Schatten bedeckt.
   Am                F9         Em                F9
Du kannst mich nicht finden, du kannst mich nicht sehn.
    Am        F9          Dm           C
Schließ deine Augen, zähl noch mal bis zehn.
 G           Am
Noch mal bis zehn.


INTERLUDE:
     Em7                  Cadd9
Such in allen Ecken, such hinter den Hecken,
    Em7                      Cadd9
ich werd mich verstecken und schweigen.
      Em7                    Cadd9
Schau über die Schulter, vielleicht bin ich da,

--------0------|--------0------|--------0-----0--|--
------1---1----|------0---0----|------0---0---0--|--
----0-------0--|----0-------0--|----0-------0-0--|--
---------------|---------------|--------------2--|--
--3------------|--2------------|--------------2--|--
---------------|---------------|--0-----------0--|--
zur rechten Zeit will ich mich zeigen.


CHORUS:
   Am                F9          Em            F9
Du kannst mich nicht finden, ich hab mich versteckt,
    Am        F9        Dm         C
ich hab deine Augen mit Schatten bedeckt.
   Am                F9         Em                F9
Du kannst mich nicht finden, du kannst mich nicht sehn.
    Am        F9          Dm           C
Schließ deine Augen, zähl noch mal bis zehn.
 G           Am
Noch mal bis zehn.
Suggest correction
Creating personal tab
Creating personal tab
You can edit any tab online and save it as your Personal.

You can edit, replace or remove any tab part or add personal notes – all changes will be seen only by you.

Personal tabs can be accessed anytime from any device, even offline.
Learn more »
Give kudos to tab author, rate the tab!
1 2 3 4 5
comments
print report bad tab
guest
You may want to rate the tab now too:
select rating
Wanna post a correction for this tab? Suggest correction