Oops, an error
Loading. Please wait.

Burbuja Tab

9 views 1 this week
no commentswrite comment
1 2 3 4 5
3 more votes to show rating
add to favorites
launch autoscroll
font size
0
reset
how to read this tab
guitar tuner
Autoscroll
slow
fast
+/-
esc
set tempo
stop
Help us to improve Ultimate-Guitar.com Take our survey!
×
Los acordes ya tan en la pagina aca les dejo,
la intro la ultima parte esta mal, pero saque lo qe pude
gracias,, jar_11_92@


E|-----------------------------------------------------------------|
A|-10-10-10-12---------------------------10------------------------|
D|-------------9-10/12-12-12-10-9-9/10/9----12-14------------14----|
G|------------------------------------------------12-14b---12---12-|
B|------------------------------------------------------15---------|
e|-----------------------------------------------------------------|


E|------------------------------------------|
A|------------------------------------------|
G|--12-14-12-11---11-12-11-9----5-7----7-5-5|
B|----------------------------------4b------|
e|------------------------------------------|


Espero qe les guste ,, aguante el rock and roll loco,
Suggest correction
Give kudos to tab author, rate the tab!
1 2 3 4 5
comments
print report bad tab
guest
You may want to rate the tab now too:
select rating
Wanna post a correction for this tab? Suggest correction