Oops, an error
Loading. Please wait.

Reponete Chords

10 views 1 this week
no commentswrite comment
1 2 3 4 5
3 more votes to show rating
add to favorites
launch autoscroll
font size
0
reset
transpose
0
reset
simplify chords
display chords
guitar tuner
Autoscroll
slow
fast
+/-
esc
set tempo
stop
Help us to improve Ultimate-Guitar.com Take our survey!
×
[ C5 - G5 - A5 ] x4

[ E5 - G5 - A5 ] x4

C        G D     A
Que lindo dia para tomar
C          G   D          A
Si estas repuesto no vas a parar

E5  G5  A5   E5  G5 A5
Repo-nete ahora, repo-nete ya
E5  G5  A5   E5  G5 A5
Repo-nete ahora, repo-nete ya

    C       G  D              A
Brindemos un poco por nuestra amistad
C       G    D             A
Por lo vivido y por lo que vendra
    C          G      D          A
Si fluye en tus venas no lo puedes pasar
C          G   D          A
Si estas repuesto no vas a parar

E5  G5  A5   E5  G5 A5
Repo-nete ahora, repo-nete ya
E5  G5  A5   E5  G5 A5
Repo-nete ahora, repo-nete ya

A5  C5  D5    A5  C5  D5
Repo-nete ahora, repo-nete ya
E5  G5  A5   E5  G5 A5
Repo-nete ahora, repo-nete ya

Acordes utilizados:
      C5        G5         A5         E5
1|-----------|-----------|-----------|-----------|
2|-----------|-----------|-----------|-----------|
3|-----5-----|-----------|-----------|-----------|
4|-----5-----|-----5-----|-----7-----|-----2-----|
5|-----3-----|-----5-----|-----7-----|-----2-----|
6|-----------|-----3-----|-----5-----|-----0-----|
      C          G         D          A
1|-----0-----|-----1-----|-----2-----|-----0-----|
2|-----1-----|-----0-----|-----3-----|-----2-----|
3|-----0-----|-----0-----|-----2-----|-----2-----|
4|-----2-----|-----0-----|-----0-----|-----2-----|
5|-----3-----|-----2-----|-----------|-----0-----|
6|-----------|-----3-----|-----------|-----------|

...+++***el_Pedi_RnR***+++...

por cualquier consulta: carlosgianelli_95@
Suggest correction
Give kudos to tab author, rate the tab!
1 2 3 4 5
comments
print report bad tab
guest
You may want to rate the tab now too:
select rating
Wanna post a correction for this tab? Suggest correction