Oops, an error
Loading. Please wait.

Santa Mariajuana Tab

10 views 1 this week
no commentswrite comment
1 2 3 4 5
3 more votes to show rating
add to favorites
launch autoscroll
font size
0
reset
how to read this tab
guitar tuner
×
Best way to learn
"Santa Mariajuana"
Autoscroll
slow
fast
+/-
esc
set tempo
stop
SANTA MERIAJUANA...
BUENO CUANDO APARECE ESTE SIMBOLO  " EN LA TABLATURA ES ESTIRAR


INTRO

1)--------------------------------------
2)-------------------------5------------
3)-4"---------2--4--4"--2-----4---2-----
4)-----5"--2----------------------------
5)--------------------------------------
6)--------------------------------------


PUNTEO EN E5 A5 B5 E5

1)----------------------------------------------------
2)----------------------------------------------------
3)----------------------------------------------------
4)----------------------------------------------------
5)--7-5---5-------------------------------------------
6)------7---5--5--7--7--5-3--0--0---------------------  X2


DESPUES HACE MEDIO RAPIDO ESTAS NOTAS

E5 X5        A5 X5  B5 X5    A5 X3  B5 X3  TODO ESTO X2


    E           A    B        A
YO VOY A DEDICARME DE AHORA EN MAS

A SER EL MENSAJERO DEL AMOR Y DE LA PAZ.

SI TIRAN UNA BOMBA QUE SEA DE MARIHUANA

ASI MORIMOS TODOS PERO DE FELICIDAD CANTANDO


1)----------------------------------------------------
2)----------------------------------------------------
3)----------------------------------------------------
4)----------------------------------------------------
5)--7-5---5-------------------------------------------
6)------7---5--5--7--7--5-3--0--0---------------------
LA LA LA LA LA LA LA LA LA LA LA


despues lo que sigue del tema es igual...

estan bien las notas...


AGUANTE SUCIAS ROCKAS


Suggest correction
Give kudos to tab author, rate the tab!
1 2 3 4 5
comments
print report bad tab
guest
You may want to rate the tab now too:
select rating
Wanna post a correction for this tab? Suggest correction