Oops, an error
Loading. Please wait.

Sila chords

version 2
version 2

Whole song

by Sud
185,032 views 2,214 this week
3 commentsread comments
1 2 3 4 5
x 5
add to favorites
×
Save as Personal and add changes to this tab that will be seen only by you. Learn more ›
×
You can save this tab as Personal to edit and correct it or add notes. All changes will be seen only by you. Learn more »
launch autoscroll
font size
0
reset
transpose
0
reset
simplify chords
display chords
guitar tuner
edit
Autoscroll
slow
fast
+/-
esc
set tempo
stop
Author
Strumming
There is no strumming pattern for this song yet. and get +5 IQ
SUD - Sila Chords/Tabs
Standard Tuning
Chords/Tabs by KHA
(This is my first tab/chords submission so please be gentle)

[Intro Tab] D - D - C#m - C#m
E-|--0--0----0------|--0--0----0------|--2s4----0------------|
B-|--3--3----3------|--3--3----3------|---------5----7h5-----|
G-|--2--2----2------|--2--2----2------|---------6------------|
D-|--0--0----0------|--0--0----0------|---------6----6-------|
A-|-----------------|-----------------|----------------------|
E-|-----------------|-----------------|----------------------|

Repeat 2x

[Verse]

    D                 
Matagal tagal din nawalan ng gana
    C#m                 
Pinagmamasadan ang dumaraan
    D                       
Lagi nalang matigas ang loob
   C#m
Sabik na may maramdaman

   D  
Di ka man bago sa paningin
  C#m    
Palihim kang nasa yakap ko't lambing
D          Bm-C#m
Sa bawat pagtago
     D                     E  
Di mapigilan ang bigkas ng damdamin


[Chrous]

       D
Walang sagot sa tanong
     C#m
Kung bakit ka mahalaga
Bm               E  
Walang papantay sa-yo 

       D
Walang sagot sa tanong
     C#m
Kung bakit ka mahalaga
Bm                E  
Walang papantay sa-yo
   

[Verse]

     D
Kung may darating man ang umaga
      C#m
Gusto kita sana muling marinig (marinig)
D
Ngiti mo lang ang nakikita ko
C#m
Tauhin man ang silid

Bm             C#m
Walang papantay sayo
Bm             C#m
Maging sino man sila
Bm               C#m  
Ikaw ang araw sa tag-ulan
      Bm          E
At sa maulap kong umaga


[Chorus]

       D
Walang sagot sa tanong
     C#m
Kung bakit ka mahalaga
Bm               E  
Walang papantay sa-yo 

       D
Walang sagot sa tanong
     C#m
Kung bakit ka mahalaga
Bm               E  
Walang papantay sa-yo
                  F#
Maging sino man sila


[Solo]

     F# - G#m - B - B 
E-|--5s6------------------------------------------------------|
B-|------7---7-----7s9--7----------7-------7-------7----------|
G-|--------8----------8---6-----6-6-8---6-6-8---6-6-8-6-6-----|
D-|-----------------------------------------------------------|
A-|-----------------------------------------------------------|
E-|-----------------------------------------------------------|

     F# - G#m - B - B - C#m7 - D
E-|-----------------------------------------------6-9-6-6------------------5-7s9----|
B-|----------7-7--------7-7--9s11-9-9-7-7-9-9---9---------9-9-9s11-9---7-9----------|
G-|--6-6-8-8-------6-8-8------------------------------------------------------------|
D-|---------------------------------------------------------------------------------|
A-|---------------------------------------------------------------------------------|
E-|---------------------------------------------------------------------------------|


[Outro]

 D
Walang sagot sa tanong
     C#m
Kung bakit ka mahalaga
Bm              E  
Walang papantay sa-yo 
Maging sino man sila

D
Parirara paparira
D
Parirara paparira
Bm               E  
Walang papantay sa-yo 
Maging sino man sila

D
Parirara paparira
D
Parirara paparira
Bm              E  
Walang papantay sa-yo
Maging sino man sila

D
Parirara paparira
D
Parirara paparira

Bm              E  
Walang papantay sa-yo
Maging sino man sila

Bm               E  
Walang papantay sa-yo
Maging sino man sila

=====

i-post nako ning chords diri para ma sepra nimo nya jam napud ta... nextime... :)

************************************

| h  Hammer-on
| s  Slap

************************************
Suggest correction
Creating personal tab
Creating personal tab
You can edit any tab online and save it as your Personal.

You can edit, replace or remove any tab part or add personal notes – all changes will be seen only by you.

Personal tabs can be accessed anytime from any device, even offline.
Learn more »
comments
print report bad tab
3 comments total.
0 reply
cryzereye 10 May 03, 2016 10:54 AM

inaccurate chords but the bridge solo is close

0 reply
smoke.labrador 10 Feb 01, 2017 08:22 AM

napakaangas\

guest
You may want to rate the tab now too:
select rating
Wanna post a correction for this tab? Suggest correction