Oops, an error
Loading. Please wait.

Tropical Seco Tab

44 views 1 this week
no commentswrite comment
1 2 3 4 5
3 more votes to show rating
add to favorites
launch autoscroll
font size
0
reset
how to read this tab
guitar tuner
×
Best way to learn
"Tropical Seco"
Autoscroll
slow
fast
+/-
esc
set tempo
stop
espero les guste aqui solo estas el intro
de esta cancion q es genial
ARRIBA EL REGGAE

intro:
E|--------------------------------------------
B|--------------------------------------------
G|--------------------------------------------
D|------6--9-7-6-7-6--------------------------   x2
A|-7-7-7-7-------------------7---------9------
E|--------------------55--9-----77--11--------


E|--------------------------------------------
B|--------------------------------------------
G|-------------------------------------------
D|----6-9-----6-9-----------------------------    x2
A|-77------77-----------7-------9-------------
E|-----------------5--9---7--11---------------


E|--------------------------------------------
B|--------------------------------------------
G|--------------------------------------------
D|-----6--9-7-6-7-6--------------------------   x2
A|-7-7-7-7-------------------7---------9------
E|--------------------55--9-----77--11--------


E|--------------------------------------------
B|--------------------------------------------
G|-------------------------------------------
D|----6-9-----6-9-----------------------------    x2
A|-77------77-----------7-------9-------------
E|-----------------5--9---7--11---------------


ESPERO QUE LES GUESTE
Suggest correction
Give kudos to tab author, rate the tab!
1 2 3 4 5
comments
print report bad tab
guest
You may want to rate the tab now too:
select rating
Wanna post a correction for this tab? Suggest correction