Oops, an error
Loading. Please wait.

Boys Dont Cry Tab

12 views 1 this week
no commentswrite comment
1 2 3 4 5
3 more votes to show rating
add to favorites
launch autoscroll
font size
0
reset
how to read this tab
guitar tuner
Autoscroll
slow
fast
+/-
esc
set tempo
stop
Help us to improve Ultimate-Guitar.com Take our survey!
×
C# D E F# (y despues lo hace al reves)

e|---------------------------------------------
B|-----------------------------7-9-10-10-9-7---
G|-6-6-6-7-9--6-6-6-7-9--9-9-9-----------------
D|---------------------------------------------
A|---------------------------------------------
E|---------------------------------------------

e|---------------------------------------------
B|-----------------------------7-9-10-10-9-7---
G|-6-6-6-7-9--6-6-6-7-9--9-9-9---------------6-
D|---------------------------------------------
A|---------------------------------------------
E|---------------------------------------------

***************************************************************
Hola, soy fausto guitarrista de la banda ? Maldita Existencia ?
y les dejo este punteito, saludos
Suggest correction
Give kudos to tab author, rate the tab!
1 2 3 4 5
comments
print report bad tab
guest
You may want to rate the tab now too:
select rating
Wanna post a correction for this tab? Suggest correction