Oops, an error
Loading. Please wait.

Beautiful Ones Bass

version 1
version 1

Whole song

Interactive

by Suede
5,097 views 21 this week
no commentswrite comment
1 2 3 4 5
2 more votes to show rating
add to favorites
launch autoscroll
font size
0
reset
guitar tuner
×
Best way to learn
"Beautiful Ones"
Autoscroll
slow
fast
+/-
esc
set tempo
stop
Band  : Suede
Song  : Beautiful Ones (Bass Tablature)
Album : Coming Up [1996]
Tabbed By : Troalance17

Note : Tune down half a step. (As with almost all Suede songs)
 
Verse/Outro

G |--------------------------------|--------------------------------|
D |--------------------------------|----------------------------(7\)| 
A |-3-3-----3-3-----5-5-----5-5---5|78-8---578-8---857-7---5---3----|
E |5------35------57------57---(5)-|-------------------------------3| 
                                             (7\)Slide before chorus
                                              (5)Sometimes in Outro
 
Verse B

G |--------------------------------|------\7---5--------------------|
D |--------------------------------|-------------7------------------|
A |-3-3-----3-3-----5-5-----5-5---5|67-7-----------757-7---5---3----|
E |5------35------57------57-------|-------------------------------3|
 
Chorus

G |--------------------------------|--------------------------------|
D |-----------5--------------------|--------------------------------|
A |-3---3---3-------------------5-7|-8---8-8-5-----5---8-------5----|
E |-------------750---7---00--7----|-----------8-5---------5--------|
 
Chorus End

G |--------------------------------|
D |--------------------------------|
A |-----------------------7-7-758--|
E |-5------------------------------|
 
Outro B

G |--------------------------------|--------------------------------|
D |----------5-5------------7-7----|---------1010-------------------|
A |-3-3---23--------5-5---35------5|78-8---57------857-7---5---3----|
E |5--------------57---------------|-------------------------------3|
 
Order:

[00:00] (Guitar Intro)
[00:09] Verse A | A
[00:29] Verse A | A | B | A
[00:58] Chorus 2x | End
[01:23] Verse A | B
[01:41] Chorus 2x
[02:02] Chorus 1x (You don't think about it)
[02:11] Chorus 4x | End And If you're babies...)
[02:45] Outro 2x | Outro B (Lalalala)
[03:14] Outro 2x | Outro B 


Hello to all my frends, especially ( ElectrogenesisBand ) 
thanx my bandmates ( Hero, Sonic, Duo, Delacroix and me Troa )...Rock On!!!
Suggest correction
Give kudos to tab author, rate the tab!
1 2 3 4 5
comments
print report bad tab
guest
You may want to rate the tab now too:
select rating
Wanna post a correction for this tab? Suggest correction