Oops, an error
Loading. Please wait.

Daddys Speeding tab

by Suede
25 views 1 this week
no commentswrite comment
1 2 3 4 5
1 last vote to show rating
add to favorites
×
Save as Personal and add changes to this tab that will be seen only by you. Learn more ›
×
You can save this tab as Personal to edit and correct it or add notes. All changes will be seen only by you. Learn more »
launch autoscroll
font size
0
reset
how to read this tab
guitar tuner
edit
Autoscroll
slow
fast
+/-
esc
set tempo
stop
Suede - Daddy's Speeding

[Verse 1] ('Whiplash caught the silver son...')

e|--3-----3-------|--3-----3-------|--3-----3-------|--3-----3-------|
B|----3-----3---3-|----3-----3-0-3-h4---4-----4---4-|----4-----4---4-|
G|0-----0-----0---|0-----0---------|------0-----0---|0-----2-----0---|
D|----------------|----------------|----------------|----------------|
A|----------------|----------------|----------------|----------------|
E|----------------|----------------|----------------|----------------|
  ^   ^   ^   ^    ^   ^   ^   ^    ^   ^   ^   ^    ^   ^   ^   ^    

e|--3-----3-------|--3-----3-------|--3-----3-------|--3-----3-------|
B|1---1-----1---1-|----1-----1---34|3---3-----3---3-|----3-----3---3-|
G|------0-----0---|0-----0-----0---|0-----0-----0---|0-----0-----0---|
D|----------------|----------------|----------------|----------------|
A|----------------|----------------|----------------|----------------|
E|----------------|----------------|----------------|----------------|
  ^   ^   ^   ^    ^   ^   ^   ^    ^   ^   ^   ^    ^   ^   ^   ^    

[Verse 2] ('Broken glass for teenage boys...')

e|--3-----3-------|--3-----3-------|--3-----3-------|--3-----3-------|
B|----3-----3---3-|----3-----3---3-h4---4-----4---4-|----4-----4---4-|
G|0-----0-----0---|0-----0-----0---|------0-----0---|0-----0-----0---|
D|----------------|----------------|----------------|----------------|
A|----------------|----------------|----------------|----------------|
E|----------------|----------------|----------------|----------------|
  ^   ^   ^   ^    ^   ^   ^   ^    ^   ^   ^   ^    ^   ^   ^   ^    

e|1---1---1-------|--1-----1-------|--3-----3-------|--3-----3-------|
B|1---1-----1---1-|----1-----1---34|3---3-----3---3-|----3-----3-----|
G|------0-----0---|0-----0-----0---|0-----0-----0---|0-----0-----0-0-|
D|----------------|----------------|----------------|----------------|
A|----------------|----------------|----------------|----------------|
E|----------------|----------------|----------------|----------------|
  ^   ^   ^   ^    ^   ^   ^   ^    ^   ^   ^   ^    ^   ^   ^   ^    

[Verse 3] ('And daddy burned a million eyes...')

e|------3-----3---|------3---------|------3---------|------3---------|
B|------------3---|------3-----3---|--------4---4---|4-------4---4---|
G|0-4-4-----4---4-|--4-4-----4---4-|--5-5-----5---5-|--5-5-----5---0-|
D|----------------|----------------|----------------|----------------|
A|----------------|----------------|----------------|----------------|
E|----------------|----------------|----------------|----------------|
  ^   ^   ^   ^    ^   ^   ^   ^    ^   ^   ^   ^    ^   ^   ^   ^    

e|------1---------|------1---------|--3-----3-------|--3-----3-------|
B|--------1---1---|--------1---1-34|3---3-----3---3-|----3-----3-----|
G|2-0-2-----2---2-|----------2-----|0-----0-----0---|0-----0-----0-0-|
D|----------------|--3-3-----------|----------------|----------------|
A|----------------|----------------|----------------|----------------|
E|----------------|----------------|----------------|----------------|
  ^   ^   ^   ^    ^   ^   ^   ^    ^   ^   ^   ^    ^   ^   ^   ^    

[Verse 4] ('And daddy turned a million heads...')

e|------3---------|------3---------|------3---------|------3---------|
B|------3-----3---|----3-------3---|----4---4-------|----4---4-------|
G|0-4-4-----4---4-|--------4-------|--0-------0-----|--0-------0-----|
D|----------------|--5-------5-----|----------------|----------------|
A|----------------|----------------|----------------|----------------|
E|----------------|----------------|----------------|----------------|
  ^   ^   ^   ^    ^   ^   ^   ^    ^   ^   ^   ^    ^   ^   ^   ^    

e|------1---------|------1---------|--3-----3-------|--3-----3---0---|
B|------1---------|------1-----1-34|3---3-----3---3-|----3-----3-0---|
G|2---0---2---2---|2---0---2-------|0-----0-----0---|0-----0-----0---|
D|--3-------3---3-|--3-------3-----|----------------|----------------|
A|----------------|----------------|----------------|----------------|
E|----------------|----------------|----------------|----------------|
  ^   ^   ^   ^    ^   ^   ^   ^    ^   ^   ^   ^    ^   ^   ^   ^    

[Chorus 1] ('With dreams of gasoline...')

e|----------------|----------------|----------------|----------------|
B|----------------|----------------|----------------|----------------|
G|----------------|----------------|----------------|----------------|
D|5-5-5-5-5-5-5-4-|----------------|----------------|----------------|
A|3-3-3-3-3-3-3-2-|2-2-2-2-2-2-2-3-|5-5-5-5-5-5-5-5-|5-5-5-5-5-5-5-5-|
E|----------------|0-0-0-0-0-0-0-1-|3-3-3-3-3-3-3-0-|3-3-3-3-3-3-3-0-|
  ^   ^   ^   ^    ^   ^   ^   ^    ^   ^   ^   ^    ^   ^   ^   ^    

e|----------------|----------------|----------------|----------------|
B|----------------|----------------|----------------|----------------|
G|----------------|----------------|----------------|----------------|
D|5-5-5-5-5-5-5-4-|----------------|----------------|----------------|
A|3-3-3-3-3-3-3-2-|2-2-2-2-2-2-2-3-|5-5-5-5-5-5-5-5-|5-5-5-5-5-5-5-5-|
E|----------------|0-0-0-0-0-0-0-1-|3-3-3-3-3-3-3-0-|3-3-3-3-3-3-3-0-|
  ^   ^   ^   ^    ^   ^   ^   ^    ^   ^   ^   ^    ^   ^   ^   ^    

e|1---------------|0---------------|----------------|----------------|
B|1---------------|0---------------|----------------|----------------|
G|2---------------|0---------------|----------------|----------------|
D|3---------------|2---------------|----------------|----------------|
A|3---------------|3-------------3-|5-5-5-5-5-5-5-5-|5-5-5-5-5-5-5-5-|
E|----------------|--------------1-|3-3-3-3-3-3-3-0-|3-3-3-3-3-3-3-0-|
  ^   ^   ^   ^    ^   ^   ^   ^    ^   ^   ^   ^    ^   ^   ^   ^    

e|1---------------|0---------------|----------------|
B|1---------------|0---------------|----------------|
G|2---------------|0---------------|----------------|
D|3---------------|2---------------|----------------|
A|3---------------|3-------------3-|5-5-5-5-5-5-5-5-|
E|----------------|--------------1-|3-3-3-3-3-3-3-0-|
  ^   ^   ^   ^    ^   ^   ^   ^    ^   ^   ^   ^        

[Verse 5] ('Whiplash caught the silver son...')

e|--3-----3-------|--3-----3-------|--3-----3-------|--3-----3-------|
B|----3-----3---3-|----3-----3---3-h4---4-----4---4-|----4-----4---4-|
G|0-----0-----0---|0-----0-----0---|------0-----0---|0-----0-----0---|
D|----------------|----------------|----------------|----------------|
A|----------------|----------------|----------------|----------------|
E|----------------|----------------|----------------|----------------|
  ^   ^   ^   ^    ^   ^   ^   ^    ^   ^   ^   ^    ^   ^   ^   ^    

e|1---1---1-------|--1-----1-------|--3-----3-------|--3-----3-------|
B|1---1-----1---1-|----1-----1---34|3---3-----3---3-|----3-----3-----|
G|------0-----0---|0-----0-----0---|0-----0-----0---|0-----0-----0-0-|
D|----------------|----------------|----------------|----------------|
A|----------------|----------------|----------------|----------------|
E|----------------|----------------|----------------|----------------|
  ^   ^   ^   ^    ^   ^   ^   ^    ^   ^   ^   ^    ^   ^   ^   ^    

[Verse 6] ('And sorrow turns his eyes to mine...')

e|------3-----3---|------3---------|------3---------|------3---------|
B|------------3---|------3-----3---|--------4---4---|4-------4---4---|
G|0-4-4-----4---4-|--4-4-----4---4-|--5-5-----5---5-|--5-5-----5---0-|
D|----------------|----------------|----------------|----------------|
A|----------------|----------------|----------------|----------------|
E|----------------|----------------|----------------|----------------|
  ^   ^   ^   ^    ^   ^   ^   ^    ^   ^   ^   ^    ^   ^   ^   ^    

e|------1---------|------1---------|--3-----3-------|--3-----3-------|
B|--------1---1---|--------1---1-34|3---3-----3---3-|----3-----3-----|
G|2-0-2-----2---2-|----------2-----|0-----0-----0---|0-----0-----0-0-|
D|----------------|--3-3-----------|----------------|----------------|
A|----------------|----------------|----------------|----------------|
E|----------------|----------------|----------------|----------------|
  ^   ^   ^   ^    ^   ^   ^   ^    ^   ^   ^   ^    ^   ^   ^   ^    

[Verse 7] ('And sorrow breaks the silent day...')

e|------3---------|------3---------|------3---------|------3---------|
B|------3-----3---|----3-------3---|----4---4-------|----4---4-------|
G|0-4-4-----4---4-|--------4-------|--0-------0-----|--0-------0-----|
D|----------------|--5-------5-----|----------------|----------------|
A|----------------|----------------|----------------|----------------|
E|----------------|----------------|----------------|----------------|
  ^   ^   ^   ^    ^   ^   ^   ^    ^   ^   ^   ^    ^   ^   ^   ^    

e|------1---------|------1---------|--3-----3-------|--3-----3---0---|
B|------1---------|------1-----1-34|3---3-----3---3-|----3-----3-0---|
G|2---0---2---2---|2---0---2-------|0-----0-----0---|0-----0-----0---|
D|--3-------3---3-|--3-------3-----|----------------|----------------|
A|----------------|----------------|----------------|----------------|
E|----------------|----------------|----------------|----------------|
  ^   ^   ^   ^    ^   ^   ^   ^    ^   ^   ^   ^    ^   ^   ^   ^    

[Chorus 2] ('With dreams of gasoline...')

e|----------------|----------------|----------------|----------------|
B|----------------|----------------|----------------|----------------|
G|----------------|----------------|----------------|----------------|
D|5-5-5-5-5-5-5-4-|----------------|----------------|----------------|
A|3-3-3-3-3-3-3-2-|2-2-2-2-2-2-2-3-|5-5-5-5-5-5-5-5-|5-5-5-5-5-5-5-5-|
E|----------------|0-0-0-0-0-0-0-1-|3-3-3-3-3-3-3-0-|3-3-3-3-3-3-3-0-|
  ^   ^   ^   ^    ^   ^   ^   ^    ^   ^   ^   ^    ^   ^   ^   ^    

e|----------------|----------------|----------------|----------------|
B|----------------|----------------|----------------|----------------|
G|----------------|----------------|----------------|----------------|
D|5-5-5-5-5-5-5-4-|----------------|----------------|----------------|
A|3-3-3-3-3-3-3-2-|2-2-2-2-2-2-2-3-|5-5-5-5-5-5-5-5-|5-5-5-5-5-5-5-5-|
E|----------------|0-0-0-0-0-0-0-1-|3-3-3-3-3-3-3-0-|3-3-3-3-3-3-3-0-|
  ^   ^   ^   ^    ^   ^   ^   ^    ^   ^   ^   ^    ^   ^   ^   ^    

e|1---------------|0---------------|----------------|----------------|
B|1---------------|0---------------|----------------|----------------|
G|2---------------|0---------------|----------------|----------------|
D|3---------------|2---------------|----------------|----------------|
A|3---------------|3-------------3-|5-5-5-5-5-5-5-5-|5-5-5-5-5-5-5-5-|
E|----------------|--------------1-|3-3-3-3-3-3-3-0-|3-3-3-3-3-3-3-0-|
  ^   ^   ^   ^    ^   ^   ^   ^    ^   ^   ^   ^    ^   ^   ^   ^    

e|1---------------|0---------------|----------------|12-10-10-10-10-10-10----|
B|1---------------|0---------------|----------------|------------------------|
G|2---------------|0---------------|----------------|---------------------12-|
D|3---------------|2---------------|----------------|------------------------|
A|3---------------|3-------------3-|5-5-5-5-5-5-5-5-|------------------------|
E|----------------|--------------1-|3-3-3-3-3-3-3-0-|------------------------|
  ^   ^   ^   ^    ^   ^   ^   ^    ^   ^   ^   ^    ^     ^     ^     ^      

[Outro/solo]

e|--------------------------------|----15-p13---13h15---15p13------|
B|--------------------------------|------------------------------13|
G|--------------------------------|--------------------------------|
D|--------------------------------|--------------------------------|
A|--------------------------------|--------------------------------|
E|--------------------------------|--------------------------------|
  ^       ^       ^       ^        ^       ^       ^       ^        

e|--------------------------------|--------------------------------|
B|15----15-----15-----15--15-p13--|13h15-15-15-15-15-14-14-14-13-13|
G|--------------------------------|--------------------------------|
D|--------------------------------|--------------------------------|
A|--------------------------------|--------------------------------|
E|--------------------------------|--------------------------------|
  ^       ^       ^       ^        ^       ^       ^       ^        

e|--------------------------------|--------------------------------|
B|13-p12------12-----p11------h13-p11------11----------------------|
G|----------------12--------------|----------------12--------------|
D|--------------------------------|--------------------------------|
A|--------------------------------|--------------------------------|
E|--------------------------------|--------------------------------|
  ^       ^       ^       ^        ^       ^       ^       ^        

e|--------------------------------|--------------------------------|
B|---------------12p10--------12--|12--13--13-p12------12----12----|
G|10-------10h12-12p10-10h12--12--|----------------12----12----12--|
D|10-------10h12-------10h12------|--------------------------------|
A|--------------------------------|--------------------------------|
E|--------------------------------|--------------------------------|
  ^       ^       ^       ^        ^       ^       ^       ^        

e|--------------------------------|--------------------------------|
B|--------------------10----10-10-|10h11-10--------10--------------|
G|12-p10------10------------------|------------10--------10----10--|
D|--------------------------------|--------------------------------|
A|--------------------------------|--------------------------------|
E|--------------------------------|--------------------------------|
  ^       ^       ^       ^        ^       ^       ^       ^        

e|--------------------------------|--------------------------------|
B|--------------------------------|--------------------------------|
G|12----------12-----p10----------|----12------12--10----------12--|
D|----------------------------10--h12------12------10----------12--|
A|--------------------------------|--------------------------------|
E|--------------------------------|--------------------------------|
  ^       ^       ^       ^        ^       ^       ^       ^        

e|--------------------------------|--------------------------------|
B|13-p12------12-----p11------h13-p11------11----------------------|
G|----------------12--------------|----------------12--------------|
D|--------------------------------|--------------------------------|
A|--------------------------------|--------------------------------|
E|--------------------------------|--------------------------------|
  ^       ^       ^       ^        ^       ^       ^       ^        

e|--------------------------------|--------------------------------|
B|---------------12p10--------12--|12--13--13-p12------12----12----|
G|10-------10h12-12p10-10h12--12--|----------------12----12----12--|
D|10-------10h12-------10h12------|--------------------------------|
A|--------------------------------|--------------------------------|
E|--------------------------------|--------------------------------|
  ^       ^       ^       ^        ^       ^       ^       ^        

e|--------------------------------|--------------------------------|
B|--------------------10----10-10-|10h11-10--------10--------------|
G|12-p10------10------------------|------------10--------10----10--|
D|--------------------------------|--------------------------------|
A|--------------------------------|--------------------------------|
E|--------------------------------|--------------------------------|
  ^       ^       ^       ^        ^       ^       ^       ^        

e|--------------------------------|--------------------------------|
B|--------------------------------|--------------------------------|
G|12----------12-----p10----------|----12------12--10----------12--|
D|----------------------------10--h12------12------10----------12--|
A|--------------------------------|--------------------------------|
E|--------------------------------|--------------------------------|
  ^       ^       ^       ^        ^       ^       ^       ^        

e|--------------------------------|--------------------------------|
B|--------------------------------|--------------------------------|
G|10-b12-b12--12--12--12--12--12--|12--12--12--12--12--12--12--12--|
D|--------------------------------|--------------------------------|
A|--------------------------------|--------------------------------|
E|--------------------------------|--------------------------------|
  ^       ^       ^       ^        ^       ^       ^       ^        

e|--------------------------------|--------------------------------|
B|10----------10-b11----10---b11--b11------10------10----12----11--|
G|--------------------------------|----12--------------------------|
D|--------------------------------|--------------------------------|
A|--------------------------------|--------------------------------|
E|--------------------------------|--------------------------------|
  ^       ^       ^       ^        ^       ^       ^       ^        

e|--------------------------------|
B|11------------------------------|
G|--------------------------------|
D|--------------------------------|
A|--------------------------------|
E|--------------------------------|
  ^       ^       ^       ^



************************************

| x   Dead note
| g   Grace note
| (n) Ghost note
| h   Hammer-on
| p   Pull-off
| r   Release
| >   Accented note
| t   Tapping
| b   Bend
| br  Bend release
| pb  Pre-bend
| pbr Pre-bend release
| /   Slide up
| \   Slide down
| ~   Vibrato
| s   Slap
| P   Pop
| PM  Palm mute
| TR  Trill
| N   Tremolo

************************************
Suggest correction
Creating personal tab
Creating personal tab
You can edit any tab online and save it as your Personal.

You can edit, replace or remove any tab part or add personal notes – all changes will be seen only by you.

Personal tabs can be accessed anytime from any device, even offline.
Learn more »
Give kudos to tab author, rate the tab!
1 2 3 4 5
comments
print report bad tab
guest
You may want to rate the tab now too:
select rating
Wanna post a correction for this tab? Suggest correction