Oops, an error
Loading. Please wait.

Heroine tab

version 1
version 1

Whole song

Interactive

by Suede
190 views 12 this week
no commentswrite comment
1 2 3 4 5
2 more votes to show rating
add to favorites
×
Save as Personal and add changes to this tab that will be seen only by you. Learn more ›
×
You can save this tab as Personal to edit and correct it or add notes. All changes will be seen only by you. Learn more »
launch autoscroll
font size
0
reset
how to read this tab
guitar tuner
backing track
0:00
0:00
edit
Autoscroll
slow
fast
+/-
esc
set tempo
stop
Suede - Heroine


[Intro]

eb|---------------------------------|--------------------------------|
Bb|---------------------------------|--------------------------------|
Gb|+12+------------+3+--------------|----------------0---------------|
Db|+12+------------+3+--------------+12+-------------0---------------|
Ab|+12+-----------------------------+12+-----------------------------|
Eb|+12+-----------------------------|--------------------------------|
    ^       ^       ^       ^        ^       ^       ^       ^        
    1 e + a 2 e + a 3 e + a 4 e + a  etc.

[Verse 1] ('She walks in beauty like the night...')

eb|----0---------------------------|--------------------------------|----0---------------------------|
Bb|--------1--p0-----1p0-----------|----1-------3-------1-------0---|--------1--p0-----------0-------|
Gb|2---------------------------0---|--------2-------------------0---|2-------------------0-------0---|
Db|--------------------------------|3-------------------------------|--------------------------------|
Ab|--------------------------------|--------------------------------|--------------------------------|
Eb|--------------------------------|--------------------------------|--------------------------------|
   ^       ^       ^       ^        ^       ^       ^       ^        ^       ^       ^       ^         

eb|--------------------------------|----0---------------------------|--------------------------------|
Bb|1---0---1---0---------------0---|--------1--p0-----------0-------|----1-------3-------1-------0---|
Gb|2-----------0-------2-------0---|2-------------------0-------0---|--------0-------------------0---|
Db|--------------------------------|--------------------------------|3-------------------------------|
Ab|--------------------------------|--------------------------------|--------------------------------|
Eb|--------------------------------|--------------------------------|--------------------------------|
   ^       ^       ^       ^        ^       ^       ^       ^        ^       ^       ^       ^         

eb|----0---------------------------|--------------------------------|
Bb|--------1--p0-------0---0-------|1--p0---1---0---------------0---|
Gb|----------------0-----------0---|2-------------------2-----------|
Db|--------------------------------|3-------------------------------|
Ab|0-------------------------------|--------------------------------|
Eb|--------------------------------|--------------------------------|
   ^       ^       ^       ^        ^       ^       ^       ^         

[Chorus] ('I'm aching...')

eb|--------------------------------|--------------------15------16--|----12--------------------------|
Bb|13------------------13h15p13-12-|--------------------------------|------------15------15-b17------|
Gb|--------------------------------|--------------------------------|--------------------------------|
Db|--------------------------------|--------------------------------|--------------------------------|
Ab|--------------------------------|--------------------------------|--------------------------------|
Eb|--------------------------------|--------------------------------|--------------------------------|
   ^       ^       ^       ^        ^       ^       ^       ^        ^       ^       ^       ^         

eb|--------------------------------|--------------------------------|--------------------15------16--|
Bb|15--13------------15b17r15-13---|13-----------------13h15p13-12--|--------------------------------|
Gb|------------14---------------14-|--------------------------------|--------------------------------|
Db|--------------------------------|--------------------------------|--------------------------------|
Ab|--------------------------------|--------------------------------|--------------------------------|
Eb|--------------------------------|--------------------------------|--------------------------------|
   ^       ^       ^       ^        ^       ^       ^       ^        ^       ^       ^       ^         

eb|----12--------------------------|--------------------------------|
Bb|------------15------15-b17--15--|----13-----------15b17r15p13----|
Gb|--------------------------------|------------14--------------14--|
Db|--------------------------------|--------------------------------|
Ab|--------------------------------|--------------------------------|
Eb|--------------------------------|--------------------------------|
   ^       ^       ^       ^        ^       ^       ^       ^        

[Verse 2] ('She walks in the beauty of a magazine...')

eb|----0---------------------------|--------------------------------|----0---------------------------|
Bb|--------1--p0-----1p0-----------|----1-------3-------1-------0---|--------1--p0-----------0-------|
Gb|2---------------------------0---|--------2-------------------0---|2-------------------0-------0---|
Db|--------------------------------|3-------------------------------|--------------------------------|
Ab|--------------------------------|--------------------------------|--------------------------------|
Eb|--------------------------------|--------------------------------|--------------------------------|
   ^       ^       ^       ^        ^       ^       ^       ^        ^       ^       ^       ^         

eb|--------------------------------|----0---------------------------|--------------------------------|
Bb|1---0---1---0---------------0---|--------1--p0-----------0-------|----1-------3-------1-------0---|
Gb|2-----------0-------2-------0---|2-------------------0-------0---|--------0-------------------0---|
Db|--------------------------------|--------------------------------|3-------------------------------|
Ab|--------------------------------|--------------------------------|--------------------------------|
Eb|--------------------------------|--------------------------------|--------------------------------|
   ^       ^       ^       ^        ^       ^       ^       ^        ^       ^       ^       ^         

eb|----0---------------------------|--------------------------------|
Bb|--------1--p0-------0---0-------|1--p0---1---0---------------0---|
Gb|----------------0-----------0---|2-------------------2-----------|
Db|--------------------------------|3-------------------------------|
Ab|0-------------------------------|--------------------------------|
Eb|--------------------------------|--------------------------------|
   ^       ^       ^       ^        ^       ^       ^       ^         

[Chorus 2] ('I'm aching...')

eb|--------------------------------|--------------------15------16--|----12--------------------------|
Bb|13------------------13h15p13-12-|--------------------------------|------------15------15-b17------|
Gb|--------------------------------|--------------------------------|--------------------------------|
Db|--------------------------------|--------------------------------|--------------------------------|
Ab|--------------------------------|--------------------------------|--------------------------------|
Eb|--------------------------------|--------------------------------|--------------------------------|
   ^       ^       ^       ^        ^       ^       ^       ^        ^       ^       ^       ^         

eb|--------------------------------|--------------------------------|--------------------15------16--|
Bb|15--13------------15b17r15-13---|13-----------------13h15p13-12--|--------------------------------|
Gb|------------14---------------14-|--------------------------------|--------------------------------|
Db|--------------------------------|--------------------------------|--------------------------------|
Ab|--------------------------------|--------------------------------|--------------------------------|
Eb|--------------------------------|--------------------------------|--------------------------------|
   ^       ^       ^       ^        ^       ^       ^       ^        ^       ^       ^       ^         

eb|----12--------------------------|--------------------------------|9-------------------------------|
Bb|------------15------15-b17-15---|----13-----------15b17r15p13----|11------------------------------|
Gb|--------------------------------|------------14--------------14--|11------------------------------|
Db|--------------------------------|--------------------------------|--------------------------------|
Ab|--------------------------------|--------------------------------|--------------------------------|
Eb|--------------------------------|--------------------------------|--------------------------------|
   ^       ^       ^       ^        ^       ^       ^       ^        ^       ^       ^       ^         

eb|10------------------------------|----------------15--15----------|----------------17--17----------|
Bb|11------------------------------|--------17--17----------17--17--|--------18--18----------18--18--|
Gb|12------------------------------|16--16--------------------------|17--17--------------------------|
Db|--------------------------------|--------------------------------|--------------------------------|
Ab|--------------------------------|--------------------------------|--------------------------------|
Eb|--------------------------------|--------------------------------|--------------------------------|
   ^       ^       ^       ^        ^       ^       ^       ^        ^       ^       ^       ^         

eb|--------------------------------|--------------------------------|--------------------------------|
Bb|11-h12--11-h12--11--12--11--0---|12-h13--12--13--12--13--12-\0---|12--12--13--13--15--15--13--13--|
Gb|--------------------------------|--------------------------------|--------------------------------|
Db|--------------------------------|--------------------------------|--------------------------------|
Ab|--------------------------------|--------------------------------|--------------------------------|
Eb|--------------------------------|--------------------------------|--------------------------------|
   ^       ^       ^       ^        ^       ^       ^       ^        ^       ^       ^       ^         

eb|--------------------------------|--------------------------------|--------------------12-------\0-|
Bb|13--13--15--15--17--17--15--15--|13------------------------------|--------------------15b17----\0-|
Gb|--------------------------------|13------------------------------|--------------------------------|
Db|--------------------------------|--------------------------------|--------------------------------|
Ab|--------------------------------|--------------------------------|--------------------------------|
Eb|--------------------------------|--------------------------------|--------------------------------|
   ^       ^       ^       ^        ^       ^       ^       ^        ^       ^       ^       ^         

[Verse 3]

eb|--------------------------------|--------------------------------|--------------------------------|
Bb|--------------------------------|--------------------------------|--------------------------------|
Gb|----------------9-----------9---|10------------------------------|----------------9-----------9---|
Db|7-----------7---9-----------9---|10----------5-----------5-------|7-----------7---9-----------9---|
Ab|7-----------7---7-----------7---|8-----------5-------7---5---7---|7-----------7---7-----------7---|
Eb|5-----------5-------------------|------------3-------3---3---3---|5-----------5-------------------|
   ^       ^       ^       ^        ^       ^       ^       ^        ^       ^       ^       ^         

eb|--------------------------------|-----------5---------------0----|-----------1--------3-------0---|
Bb|--------------------------------|----------5---------------0-----|----------1---------0-------0---|
Gb|10------------------------------|---------5---------------0------|---------1----------0-------0---|
Db|10----------5-----------5-------|--------7---------------2-------|--------3-----------0-------0---|
Ab|8-----------5-------7---5---7---|--------------------------------|--------------------------------|
Eb|------------3-------3---3---3---|--------------------------------|--------------------------------|
   ^       ^       ^       ^        ^       ^       ^       ^        ^       ^       ^       ^         

eb|5-------5-------7-------7-------|1-------1---1-------3-------0---|
Bb|5-------5-------8-------8-------|1-------1---1-------3-------0---|
Gb|5-------5-------9-------9-------|2-------2---2-------0-------0---|
Db|7-------7-------9-------9-------|3-------3---3-------0-------0---|
Ab|7-------7-------7-------7-------|3-------3---3-------------------|
Eb|5-------5-----------------------|1-------1---1-------3-------3---|
   ^       ^       ^       ^        ^       ^       ^       ^   

[Chorus 3]

eb|--------------------------------|--------------------15------16--|----12--------------------------|
Bb|13------------------13h15p13-12-|--------------------------------|------------15------15-b17------|
Gb|--------------------------------|--------------------------------|--------------------------------|
Db|--------------------------------|--------------------------------|--------------------------------|
Ab|--------------------------------|--------------------------------|--------------------------------|
Eb|--------------------------------|--------------------------------|--------------------------------|
   ^       ^       ^       ^        ^       ^       ^       ^        ^       ^       ^       ^         

eb|--------------------------------|--------------------------------|--------------------15------16--|
Bb|15--13------------15b17r15-13---|13-----------------13h15p13-12--|--------------------------------|
Gb|------------14---------------14-|--------------------------------|--------------------------------|
Db|--------------------------------|--------------------------------|--------------------------------|
Ab|--------------------------------|--------------------------------|--------------------------------|
Eb|--------------------------------|--------------------------------|--------------------------------|
   ^       ^       ^       ^        ^       ^       ^       ^        ^       ^       ^       ^         

eb|----12--------------------------|--------------------------------|--------------------------------|
Bb|------------15------15-b17--15--|----13-----------15b17r15p13----|13------------------13h15p13-12-|
Gb|--------------------------------|------------14--------------14--|--------------------------------|
Db|--------------------------------|--------------------------------|--------------------------------|
Ab|--------------------------------|--------------------------------|--------------------------------|
Eb|--------------------------------|--------------------------------|--------------------------------|
   ^       ^       ^       ^        ^       ^       ^       ^        ^       ^       ^       ^        

eb|--------------------15------16--|----12--------------------------|--------------------------------|
Bb|--------------------------------|------------15------15-b17------|15--13------------15b17r15-13---|
Gb|--------------------------------|--------------------------------|------------14---------------14-|
Db|--------------------------------|--------------------------------|--------------------------------|
Ab|--------------------------------|--------------------------------|--------------------------------|
Eb|--------------------------------|--------------------------------|--------------------------------|
   ^       ^       ^       ^        ^       ^       ^       ^        ^       ^       ^       ^         

eb|--------------------------------|--------------------15------16--|----12--------------------------|
Bb|13-----------------13h15p13-12--|--------------------------------|------------15------15-b17--15--|
Gb|--------------------------------|--------------------------------|--------------------------------|
Db|--------------------------------|--------------------------------|--------------------------------|
Ab|--------------------------------|--------------------------------|--------------------------------|
Eb|--------------------------------|--------------------------------|--------------------------------|
   ^       ^       ^       ^        ^       ^       ^       ^        ^       ^       ^       ^         

eb|--------------------------------|--------------------------------|--------------------------------|
Bb|----13-----------15b17r15p13----|--------------------------------|--------------------8-------9---|
Gb|------------14--------------14--|5-------------------5h7p5---4---|--------------------------------|
Db|--------------------------------|--------------------------------|--------------------------------|
Ab|--------------------------------|--------------------------------|--------------------------------|
Eb|--------------------------------|--------------------------------|--------------------------------|
   ^       ^       ^       ^        ^       ^       ^       ^        ^       ^       ^       ^         

eb|--------------------------------|--------------------------------|--------------------------------|
Bb|----5---------------------------|--------------------------------|--------------------------------|
Gb|------------7-----7b9-------7---|----5-------------7b9--r7p5-----|5-------------------5h7p5---4---|
Db|--------------------------------|------------7---------------7---|--------------------------------|
Ab|--------------------------------|--------------------------------|--------------------------------|
Eb|--------------------------------|--------------------------------|--------------------------------|
   ^       ^       ^       ^        ^       ^       ^       ^        ^       ^       ^       ^         

eb|--------------------------------|--------------------------------|--------------------------------|
Bb|--------------------8-------9---|----5---------------------------|--------------------------------|
Gb|--------------------------------|------------7-----7b9-------7---|----5-------------7b9--r7p5-----|
Db|--------------------------------|--------------------------------|------------7---------------7---|
Ab|--------------------------------|--------------------------------|--------------------------------|
Eb|--------------------------------|--------------------------------|--------------------------------|
   ^       ^       ^       ^        ^       ^       ^       ^        ^       ^       ^       ^         

eb||--------------------------------||
Bb||--------------------------------||
Gb||7--b9--r7--b9--r7-b9-r7-b9-r7-b9||  repeat to end
Db||--------------------------------||
Ab||--------------------------------||
Eb||--------------------------------||
    ^       ^       ^       ^        

***********************************
| /   Slide up
| \   Slide down
| h   Hammer-on
| p   Pull-off
| +   Harmonic
| b   Bend
| r  Bend release
***********************************

            
            
Suggest correction
Creating personal tab
Creating personal tab
You can edit any tab online and save it as your Personal.

You can edit, replace or remove any tab part or add personal notes – all changes will be seen only by you.

Personal tabs can be accessed anytime from any device, even offline.
Learn more »
Give kudos to tab author, rate the tab!
1 2 3 4 5
comments
print report bad tab
guest
You may want to rate the tab now too:
select rating
Wanna post a correction for this tab? Suggest correction