Oops, an error
Loading. Please wait.

Saturday Night tab

version 2
version 2

Whole song

Interactive

by Suede
14,302 views 27 this week
1 commentread comment
1 2 3 4 5
x 4
add to favorites
×
Save as Personal and add changes to this tab that will be seen only by you. Learn more ›
×
You can save this tab as Personal to edit and correct it or add notes. All changes will be seen only by you. Learn more »
launch autoscroll
font size
0
reset
how to read this tab
guitar tuner
edit
Autoscroll
slow
fast
+/-
esc
set tempo
stop
SATURDAY NIGHT - Suede
Arranged for one guitar
Tabbed by: dannyboy78
Email: stuartdanielball@googlemail.com
Tuning: Eb Ab Db Gb Bb Eb

[Intro]
   A                                  C#m/G#
   (let ring where possible)
e|-----------------------------------|----------------------------------|
B|---------2-----------2-3-3/5-3-2-0-|--------2-----------2-3-3/5-3-2-0-|
G|-----2-----2---2-------------------|----1-----1---1-------------------|
D|---2---2-----2-----2---------------|--2---2-----2-----2---------------|
A|-0-------------0-0-----------------|----------------------------------|
E|-----------------------------------|4-------------0-0-----------------|
   
   G                                 D/F#            Dm/F
e|---------------------------------|---------2-------1-----0------------|
B|---------0-2-----2-3---3---2---3-|-----------3-------3-----3---3------|
G|-----0---0-2-----2-4---4---2---2-|-----2-------2-------2-----2---2----|
D|---0---0-------0---------0-----0-|---0---0-------0---------0----------|
A|---------------------------------|------------------------------------|
E|-3-----------3-------3-------3---|-2-----------------------1----------|

   E7sus4        E7
                (arp.)
e|---------------0-----------------|
B|-----3---3---3-0-----------------|
G|-----2---2---2-1---------1-------|
D|-----0---0---0-0-----0-----0---0-|
A|---2---2---2---2---2---2-----2---|
E|-0-------------0-----------------|

[Verse]
This is just the INTRO (x2), followed by
   E7sus4       E7                                     Bm
                (arp.)                      (triplet)
e|---------------0-----------------|-----------------------------------|
B|-----3---3---3-0-----------------|---------------------------3-------|
G|-----2---2---2-1-----------------|----------1------------4-----4---4-|
D|-----0---0---0-0-----0-----0-----|-----0---------------4---4-----4---|
A|---2---2---2---2---2---0h2---2p0-|---2----2----4--3--2-----2-2-------|
E|-0-------------0-----------------|-0---------------------------------|

   F       F(b5)   F         F(b5)
e|-----------------------------------|
B|-1-----0---------1-----0h1p0-------|
G|---2-------2---2---2---------2---2-|
D|-----3-------3-------3---------3---|
A|-------------3-----------------3---|
E|-1-----1-1-------1-----1---1-------|

[Chorus]
   D               E7                A               F#m
e|---------2-----------------------|---------------------------------|
B|-----3-----3---3---------0-------|---------2---------------2-------|
G|---2---2-----2-------1-----1---1-|-----2-----2---2-----2---2-----2-|
D|-0-----0-0---------0---0-----0---|---2---2-----2-----2---4-4p2-----|
A|---------------------------------|-0-----0-0-------------------4---|
E|-----------------0-----0-0-------|-------------4---2---------------|

    D               E7                A               Bm                    Fadd9               
                                                                    (arp.)  (arp.)
e|----------2-----------------------|---------------------------------2-------1-------|
B|------3-----3---3---------0-------|---------2---------------2-------3-3-----1-------|
G|----2---2-----2-------1-------1---|-2---2-----2---2-----4-----4---4-4---4---0-0-----|
D|--0-----0-0---------0---------0---|-2-2---2-----2-----4---4-----4---4-----4-3---3---|
A|------------------------------0---|-0-----0-0---0-1-2-----2-2-------2-------3-----3-|
E|------------------0-----0-0h2---2-|-----------------------------------------1-------|

[VERSE 2] (as VERSE 1)
[Chorus]
[BREAK]

  Aadd9            C#m7/G#           Bm                      Fadd9
                                                   (arp.)  (arp.)
e|---------------------------------|-----------------2-------1-------|
B|---------2---------------2-------|---------3-------3-3-----1-------|
G|-----4-----4---4-----4-----4---4-|-----4-----4---4-4---4---0-0-----|  (x2)
D|---2---2-----2-----2---2-----2---|---4---4-----4---4-----4-3---3---|
A|-0-----0-0-----------------------|-2-----2-2-------2-------3-----3-|
E|-----------------4-----4-4-------|-------------------------1-------|

  Aadd9            C#m7/G#           E7
                                                            (arp.)
e|---------------------------------|-----------------------0----------|
B|---------2---------------2-------|---------2---------------3-2-0-2h3|
G|-----4-----4---4-----4-----4---4-|-----4-----4---4-----1---0--------|
D|---2---2-----2-----2---2-----2---|---2---2-----2-----0-----1--------|
A|-0-----0-0-----------------------|---------------2---------------2--|
E|-----------------4-----4-4-------|-0-----0-0-------0-----0-0--------|

[FINAL CHORUS]
   D               E7                A               F#m
e|---------2-----------------------|---------------------------------|
B|-----3-----3---3---------0-------|---------2---------------2-------|
G|---2---2-----2-------1-----1---1-|-----2-----2---2-----2---2-----2-|
D|-0-----0-0---------0---0-----0---|---2---2-----2-----2---4-4p2-----|
A|---------------------------------|-0-----0-0-------------------4---|
E|-----------------0-----0-0-------|-------------4---2---------------|

    D               E7                A               Bm                             
e|----------2-----------------------|---------------------------------|
B|------3-----3---3---------0-------|---------2---------------2-------|
G|----2---2-----2-------1-------1---|-2---2-----2---2-----4-----4---4-|
D|--0-----0-0---------0---------0---|-2-2---2-----2-----4---4-----4---|
A|------------------------------0---|-0-----0-0---0-1-2-----2-2-------|
E|------------------0-----0-0h2---2-|---------------------------------|

[OUTRO] (same as FINAL CHORUS; repeat to fade)
   D               E7                A               F#m
e|---------2-----------------------|---------------------------------|
B|-----3-----3---3---------0-------|---------2---------------2-------|
G|---2---2-----2-------1-----1---1-|-----2-----2---2-----2---2-----2-|
D|-0-----0-0---------0---0-----0---|---2---2-----2-----2---4-4p2-----|
A|---------------------------------|-0-----0-0-------------------4---|
E|-----------------0-----0-0-------|-------------4---2---------------|

    D               E7                A               Bm                             
e|----------2-----------------------|---------------------------------|
B|------3-----3---3---------0-------|---------2---------------2-------|
G|----2---2-----2-------1-------1---|-2---2-----2---2-----4-----4---4-|
D|--0-----0-0---------0---------0---|-2-2---2-----2-----4---4-----4---|
A|------------------------------0---|-0-----0-0---0-1-2-----2-2-------|
E|------------------0-----0-0h2---2-|---------------------------------|

************************************

| /   slide up
| h   hammer-on
| p   pull-off

************************************

            
            
Suggest correction
Creating personal tab
Creating personal tab
You can edit any tab online and save it as your Personal.

You can edit, replace or remove any tab part or add personal notes – all changes will be seen only by you.

Personal tabs can be accessed anytime from any device, even offline.
Learn more »
comments
print report bad tab
1 comment total.
0 reply
Avi_Israel 2,819 Aug 16, 2013 06:09 AM

excellent work!

guest
You may want to rate the tab now too:
select rating
Wanna post a correction for this tab? Suggest correction