Oops, an error
Loading. Please wait.

Sound Of The Streets Tab

1,210 views 1 this week
no commentswrite comment
1 2 3 4 5
please rate
add to favorites
launch autoscroll
font size
0
reset
how to read this tab
guitar tuner
Tab Pro tools
  • play this tab
  • loop segment
  • change instrument
  • show fretboard
  • metronome
×
Best way to learn
"Sound Of The Streets"
Autoscroll
slow
fast
+/-
esc
set tempo
stop
Contributor
Any corrections = lux_thundermu_player@hotmail.com

The tuning's half step down

Verse
A Em G D
A Em F E (Only the last one before chorus)

Chorus
A C#m D A
A C#m D E7


Verse and intro
A        Em     G       D
|-------------------3-2-0---2-0---|
|---2-0------------3-----------3--|
|------2-0-0---0-----------2----2-|
|--2------2---2--0--------0-------|
|-0----------2--4-----------------|
|-----------0-----3---------------|
She walks...   inside her there's...

A        Em     F       E
|---------------------------10-12-10--|
|---2-0--------------10----9--------12|
|------2-0-0-------10--10-------------|
|--2------2------10-------9-----------|
|-0-------------8---------------------|
|-------------------------------------|
she walks...   tiiiiime..
Chorus
A        C#m     D       A
|-----------0-------------------3-2-0|
|---2-0-2----3-2----2-0-2----2-3-----|
|----------1-------2--------2--------|
|--2------2-------0--------2---------|
|-0-----------------------0----------|
|------------------------------------|
A        C#m     D        E7      2° time
|-----------0-----------------7---|--------|
|---2-0-2----3-2----2-0-2----7-7--|---7-7~~|
|----------1-------2--------7---7-|--7--7~~|
|--2------2-------0--------7-----7|-7------|
|-0-------------------------------|--------|
|---------------------------------|--------|

Solo (A Em G D)
e-----------------------------------------------10-12--12/14-14-12----|
B-10-10---------12-----------15---------------10-----10---------------|
G------9----------12-9---------14-12~------11-------------------------|
D-------11-7/9~--------9/12~---------12-12----------------------------|
A---------------------------------------------------------------------|
E---------------------------------------------------------------------|

e----------------------------------------------------------------------|
B-15-14~---------------------------------------------------------------|
G----------14-12-------------12-------12-------12-14b16-16-16-16-16b14-|
D-------14-------14~14-12h14----12h14----12h14-------------------------|
A----------------------------------------------------------------------|
E----------------------------------------------------------------------|

e-------------------------12----------12/14-12------------------------|
B-------15-14-12-------------15-14~------------15~14-15----14----12---|
G-12-------------14-11/12~---------12~------------------11----11------|
D----14~--------------------------------------------------------------|
A---------------------------------------------------------------------|
E---------------------------------------------------------------------|

e---------------------------------------------------------------------|
B-------------12b14b12----------15b17b15-14~14-15-14----15-14----15---|
G-11-14----------------14-12~12----------------------14-------14------|
D-------14-14---------------------------------------------------------|
A---------------------------------------------------------------------|
E---------------------------------------------------------------------|

e---------------------------------------------------------------------|
B-14----15-14----15-14------------------------------------------------|
G----14-------14-------14---------------------------------------------|
D-------------------------14~~~---------------------------------------|
A---------------------------------------------------------------------|
E---------------------------------------------------------------------|

Second Guitar on Outro
Use slides
A        C#m     D       A
|-------------------12--------------------------------15-14-12-|
|------14-12-14-------15-14-------14-12-14-------14-15---------|
|-----------------13------------14-------------14--------------|
|---14----------14-----------12--------------14----------------|
|-12---------------------------------------12------------------|
|--------------------------------------------------------------|
  A             C#m           D              E7
|-------------------12-----------------------------19-19~~--|
|------14-12-14-------15-14-------14-12-14-------19---19~~--|
|-----------------13------------14-------------19-----19~~--|
|---14----------14-----------12--------------19-------------|
|-12--------------------------------------------------------|
|-----------------------------------------------------------|
comments
We did not receive enough feedback on this tab! Please rate:
print report bad tab
1 2 3 4 5
I want to post or [tab]
guest
You may want to rate the tab now too:
select rating
Please do not post tabs as comments. Select "correction" instead!