Oops, an error
Loading. Please wait.

Catatonia Tab

version 2
version 2

Whole song

Interactive

1,606 views 1 this week
no commentswrite comment
1 2 3 4 5
please rate
add to favorites
launch autoscroll
font size
0
reset
how to read this tab
guitar tuner
Autoscroll
slow
fast
+/-
esc
set tempo
stop
Help us to improve Ultimate-Guitar.com Take our survey!
×
Author
Difficulty
intermediate
.  - palm mute           /  - slide up to
\  - slide down to       ~  - vibrato
h  - hammer on           b  - Bend
p  - pull off            Suffixes for bend
t  - tap                 f  - full bend    h - half bend
ph - pinched harmonic    q  - quarter bend t - tap bend
*  - see comment         ^  - Hold bend    r release bend
x  - Stuccatto           ~  - vibrato bend
,  - slight palm mute    () - ghost note, sustained note
"  - tremolo note        <> - Trill
S  - Sustained Note      G  - Gallop

Tunning: Tune Low to High:
6=Df 5=Gf 4=Cf 3=Ff 2=Af 1=Df

Riff#1. Slighty Fast..
|-----------------------------------||
|-----------------------------------||
|-----------------------------------||
|-----------------------------------||
|2---------2---------2---------6-4-3||
|0-1-1-1-1-0-1-1-1-1-0-1-1-1-1-4-2-1||
   . . . .   . . . .   . . . . . . .

Riff#2. Heavy!           Fill 1.  Fill 2.
|-----------------|-----|------|---------||
|-----------------|-----|------|---------||
|-----------------|-----|------|---------||
|----6-----6-----6|-----|6-----|---------||
|5-4-4-5-4-4-5-4-4|5-4-3|4-5---|5-4-3-4-5||
|3-2---3-2---3-2--|3-2-1|--3-4~|3-2-1-2-3||
 . .   . .   . .   . . .     ph . . . . .

Riff#3.
     (Play 2 times)           (Play 2 times)
|-----------------------|-----------------------||
|-----------------------|-----------------------||
|-----------------------|-----------------------||
|--5-------6---5--------|--5-------6---5--------||
|------4-5---------5-4--|------4-5---------5-4--||
|3---3-------3---3-----5|3---3-------3---3-----5||
                         . . . . . . . . . . . .

Riff#4.                                             Fill 1.      Fill 2.
|-----------------------------------|------------|------------|-----------||
|-----------------------------------|------------|------------|-----------||
|-----------------------------------|----------ph|------------|-----------||
|-----------------------------------|--5-------4-|------------|-----------||
|-----------------------------------|------4-----|--2-1-----ph|--2-1------||
|1-1-1-2-1-0-1-1-1-2-1-0-1-1-1-2-1-0|3---3---3---|3-----1\2-2-|3-----5-4-3||
 . . . . . . . . . . . . . . . . . .              . . .        . . . . . .

Repeat#3,4:this time play only the second fill.

Riff#5A.Fast..                           (Real Fast starting here)
|-----------------------------------------------------------------||
|-----------------------------------------------------------------||
|-----------------------------------------------------------------||
|9-------------9-------------8------------10101010----------------||
|7--G---G------7--G---G------6--G---G-------------7777888810101010||
|--000-000-0-7---000-000-0-6---000-000-0-7------------------------||
   ... ... . .   ... ... . .   ... ... . ., , , , ................

Riff#5B. Real Fast..
|-----------------------------------------------------------------||
|-----------------------------------------------------------------||
|-----------------------------------------------------------------||
|9-------------9-------------8------------10101010----------------||
|7-------------7-------------6--------------------7777888810101010||
|-0000000000007-0000000000006-000000000000------------------------||
  ............. ............. ............, , , , ................

Riff#6. Real Fast..
|-----------------------------------------------------||
|-----------------------------------------------------||
|-----------------------------------------------------||
|--------6--------------------------------------------||
|44444444-5555555577776666------------7------------4/5||
|-------------------------555544444444-55555555-5-6---||
 ........,............................,........ . .

Riff#7. Real Fast..                   Fill 1.
|--------------------------|-------|---------||
|--------------------------|-------|---------||
|--------------------------|-------|---------||
|--------2--------2--------|-------|--4---3--||
|00000000000000000000000000|-------|0---0---0||
|--------------------------|5-3-2-5|---------||
 ........ ........ ........ . . . . .   .   .

Repeat Riffs#6,1.

Riff#8. Fast.
|-----------------------------------------------------------------||
|-----------------------------------------------------------------||
|-----------------------------------------------------------------||
|-------6---6---5---6---6---6---5--------6---6---5---6---6---6----||
|-------x---x---x---x---x---x---x--------x---x---x---x---x---x---7||
|000000-0-0-0-0-0-0-0-0-0-0-0-0-0-000000-0-0-0-0-0-0-0-0-0-0-0-0--||
 ...... . . . . . . . . . . . . . ...... . . . . . . . . . . . .

Riff#9A. Fast/Solo Riff.. (Play 3 times)
|---------------------------------------------------||
|---------------------------------------------------||
|--------4--------4/5--------55554444--------4-3---3||
|22222222------------33333333--------------------4--||
|---------33333333-------------------22222222-------||
|---------------------------------------------------||
 ........ ........   ........,,,,,,,,......... . . .

Riff#9B. (Play once only)
|------------------------------------------------||
|------------------------------------------------||
|------------------------------------------------||
|222222222222------------333333333333------------||
|------------333333333333------------222222222222||
|------------------------------------------------||
 ................................................

Riff#10.
|--------------------------------------------------------------|
|--------------------------------------------------------------|
|--------------------------------------------------------------|
|--------------------------------------------------------------|
|----------------------------------------2-----3-----2-----2/3-|
|4-4-4-5-5-5-0-4-4-4-5-5-5-0-4-4-4-5-5-5-0-0-0-1-0-0-0-0-0-----|
 . . . . . . . . . . . . . . . . . . . .   . .   . .   . .

Riff#10 continued...
|---------------------------------------------------------------||
|---------------------------------------------------------------||
|---------------------------------------------------------------||
|---------------------------------------------------------------||
|2-2-2-3-3-3-0-2-2-2-3-3-3-0-3-2-0-3-2-----3-----2-----3-----2/3||
|------------------------------------0-0-0-1-0-0-0-0-0-1-0-0----||
 . . . . . . . . . . . . . . . . . .   . .   . .   . .   . .

Transition Note..
|-|
|-|
|-|
|6|
|-|
|-|

Repeat Riff#8.

Riff#11.Fast...
|--------------------------------||
|--------------------------------||
|--------------------------------||
|--------------------------------||
|--------------------------------||
|3-0-4-0-3-0-4-0-3-0-4-0-00000000||
 . . . . . . . . . . . . ........

End Chord.
|------||
|------||
|------||
|9---3-||
|7-/-1-||
|--r---||


END.
Suggest correction
What's this?
You can suggest a correction to this tab. Community and Mods will review your correction and vote to approve or reject it.
comments
We did not receive enough feedback on this tab! Please rate:
print report bad tab
1 2 3 4 5
guest
You may want to rate the tab now too:
select rating
Please do not post tabs as comments. Select "correction" instead!