Oops, an error
Loading. Please wait.

Funeral Inception Tab

version 1
version 1

Whole song

Interactive

2,997 views 3 this week
no commentswrite comment
1 2 3 4 5
1 last vote to show rating
add to favorites
launch autoscroll
font size
0
reset
how to read this tab
guitar tuner
Autoscroll
slow
fast
+/-
esc
set tempo
stop
Help us to improve Ultimate-Guitar.com Take our survey!
×
Funeral Inception - Suffocation - Despise The Sun

Rhythm Guitar Transcribed on Bass 
Tuning* (Low - High): Db Gb B E 

Palm Mute Notation:
pml - Light Pm; pm - Moderate Pm; pmh - Heavy Pm

*A NOTE BEFORE STARTING: It appears that on the album, Guitar 2 
(right channel) is tuned slightly higher than Guitar 1 
(left channel) - the difference is between 1/4 to 1/2 step higher.

A
|---------------------------------------------|
|---------------------------------------------|
|---------------------------------------------|
|-333-222-4-5-333-222-3-5-333-222-4-5-3-4-2-3-|
  pm..........................................

B
|---------------------------------------------|
|-------------------------------------4\3-----|
|-------------------------------------2\1-----|
|-333-222-4-5-333-222-3-5-333-222-4-5-----3-5-|
  pm..................................    pm..

Repeat A & B

C
|---------------------------------------------|
|----4\3-----------4\3--------4\3-------------|
|-3--2\1-----4--3--2\1-----3--2\1-------------|
|-1------3-5-2--1------3-5-1------3-5-2-3-2-3-|
         pm..          pm..       pm..........

Repeat A, B, A, B & C

Fill - Guitar 1 (Left Channel)
|---------|
|---------|
|-4-5-3-4-|
|-2-3-1-2-|
  pm......
Fill - Guitar 2 (Right Channel)
|---------|
|---------|
|-4/5\3/4-|
|-2/3\1/2-|


   Guitar 1 (Left Channel)
|------------------------------------------------------|
|-3----------------------------------------------------|
|-1--------------------------------------------4-5-3-4-|
|----------------------------------------------2-3-1-2-|
                                               pm......
D1 Guitar 2 (Right Channel)
|------------------------------------------------------|
|-3-------------------------3-----5-----3--------------|
|-1-------------------------1-----3-----1------4-5-3-4-|
|---111111111111111111111111--1111--1111--1111-2-3-1-2-|
    pm......................  pm..  pm..  pm...........

 
    Guitar 1 (Left Channel)
|------------------------------------------------------|
|-3-------------------------------------4\3------------|
|-1-------------------------------------2\1-----4/5\3--|
|-------------------------------------------3-5-2/3\1--|
                                            pm..
D2  Guitar 2 (Right Channel)
|------------------------------------------------------|
|-3-------------------------3-----5-----4\3------------|
|-1-------------------------1-----3-----2\1-----4/5\3--|
|---111111111111111111111111--1111--1111----3-5-2/3\1--|
    pm......................  pm..  pm..    pm..

D3
|------------------------------------------------------|
|-3-------------------------3-----5-----3--------------|
|-1-------------------------1-----3-----1------4-5-----|
|---111111111111111111111111--1111--1111--1111-2-3-111-|
    pm......................  pm..  pm..  pm...........

D4
|-------------------------------------------------------|
|-3-------------------------3-----5-----4\3-------------|
|-1-------------------------1-----3-----2\1-------------|
|---111111111111111111111111--1111--1111----3-5-2-3-1-2-|
    pm......................  pm..  pm..    pm..........

Repeat D3 & D4

E1
|----------------------------------------------------------------|
|----------------------------------------------------------------|
|--------7777--------------------44444444--------3333333333333333|
|44444444----66663333333333333333--------33333333----------------|
 pm..............................................................

E2
|----------------------------------------------------------------|
|----------------------------------------------------------------|
|--------7777--------------------44444444--------3333---5--4--3--|
|44444444----66663333333333333333--------33333333----4--3--2--1--|
 pm..............................................................

Repeat D3

D5
|-------------------------------------------------------|
|-3-------------------------3-----5-----4\3-------------|
|-1-------------------------1-----3-----2\1---------3---|
|---111111110000000000000000--1111--1111----3-5-2-3-1---|
    pm......................  pm..  pm..    pm......

Repeat D3 & D5
Repeat E1

E3  Guitar 1 (Left Channel)
|----------------------------------------------------------------|
|--------7777-----------------------------------4\3--------------|
|44444444----6666333333333333333344444444-------2\1-----5--4--3--|
|----------------------------------------333333-----3-5-3--2--1--|
 pm..............................................................
E3  Guitar 2 (Right Channel)
|----------------------------------------------------------------|
|-----------------------------------------------4\3--------------|
|--------7777--------------------44444444-------2\1-----5--4--3--|
|44444444----66663333333333333333--------333333-----3-5-3--2--1--|
 pm..............................................................

Repeat (A & B) x 2

C'
|-------------------------------------------|
|----4\3-----------4\3--------4\3-----------|
|-3--2\1-----4--3--2\1-----3--2\1-----4--3--|
|-1------3-5-2--1------3-5-1------3-5-2--1--|
         pm..          pm..       pm..

Bass
|------------------------------ -------------------------------|
|------------------------------ -------------------------------|
|------------------------------ -------------------------------|
|-3--2--1--2--3--2--3--2--1--2- -3--2--1--2--3--2--4--5--3--4--|
                                                   Guitars
|--------------------------------------------------------------|
|--------------------------------------------------------------|
|--------------------------------------------------6--7--5--6--|
|--------------------------------------------------4--5--3--4--|
                                                   pm..........

F
|-------------------------------|
|-------------------------------|
|-5--4--3--4--5--4--6--7--5--6--|
|-3--2--1--2--3--2--4--5--3--4--|
  pm............................

Pause

G                                                  Play 4 Times
|-------------------------------------------------------------|
|-------------------------------------------------------------|
|-5--4--3--4--5--4--5--4--3--4--5--4--3--4--5--4--6--7--5--6--|
|-3--2--1--2--3--2--3--2--1--2--3--2--1--2--3--2--4--5--3--4--|
  pm..........................................................

Repeat F, Pause, F, Pause, F & Pause

F' (last time)                   (Left Channel Only)
|-------------------------------|-------------|
|-------------------------------|-------------|
|-5--4--3--4--5--4--6--7--5--6--|-4--5--3--4--|
|-3--2--1--2--3--2--4--5--3--4--|-2--3--1--2--|
  pm..........................................


    Guitar 1 (Left Channel)
|--------------------------------------------|
|--------------------------------------------|
|-4------------------------------------------|
|-2------------------------------------------|
H1  Guitar 2 (Right Channel)
|--------------------------------------------|
|--------------------------------------------|
|-4---------------4-/5--3-----------3--2-----|
|-2--000000000000-2-/3--1--0--1--3--------3--|
     pm...........         pm.......

 
    Guitar 1 (Left Channel)
|------------------------------------------------|
|------------------------------------------------|
|-4------------4-/5--3-----------4-/5--3---5-/6--|
|-2------------2-/3--1-----------2-/3--1---3-/4--|
H2  Guitar 2 (Right Channel)
|------------------------------------------------|
|------------------------------------------------|
|-4------------4-/5--3-----------4-/5--3---5-/6--|
|-2--000000000-2-/3--1--00000000-2-/3--1---3-/4--|
     pm........         pm.....


    Guitar 1 (Left Channel)
|-----------------------------------------------|
|-----------------------------------------------|
|-4------------------4-/5--3-----3--5-----------|
|-2------------------2-/3--1-----1--3-----------|
    Guitar 2 (Right Channel)
|-----------------------------------------------|
|-----------------------------------------------|
|-4------------------4-/5--3-----------3--2-----|
|-2--000000000000000-2-/3--1--0--1--3--------3--|
     pm..............         pm.......


    Guitar 1 (Left Channel)
|--------------------------------------------------|
|--------------------------------------------------|
|-4------------------------3--2-----4--3-----5--4--|
|-2------------------3--2--------3--------4--------|
                     pm............................
H3  Guitar 2 (Right Channel)
|--------------------------------------------------|
|--------------------------------------------------|
|-4------------------------3--2-----4--3-----5--4--|
|-2--000000000000000-3--2--------3--------4--------|
     pm............................................

Repeat (H1, H2, H1 & H3) x 2   (Both Guitars)

I    (1 & 2)              (3)
|-------------|-------------------------|
|-------------|-------------------------|
|-4--3--4--5--|-4--3--5--6--4--5--3--4--|
|-2--1--2--3--|-2--1--3--4--2--3--1--2--|
  pm....................................

Bass  (1 & 2)             (3)
|-------------|-------------------------|
|-------------|-------------------------|
|-------------|-------------------------|
|-2--1--2--3--|-2--1--3--4--2--3--1--2--|

J
|----------------------------------------|
|----------------------------------------|
|-4--5-5-4--5-5-4--5-5-5--6--4--5--3--4--|
|-2--3-3-2--3-3-2--3-3-3--4--2--3--1--2--|
  pm.....................................

K     (1 & 2)                   (3) - Grind Motherfucker!!!!
|-----------------|---------------------------------|
|-----------------|---------------------------------|
|-----------------|---------------------------------|
|-2-2-1-1-2-2-3-3-|-2-2-1-1-3-3-4-4-2-2-3-3-1-1-2-2-|
  pm................................................

L1    (1 & 2)                   (3)
|-----------------|-----------------------|
|-----------------|-----------------4-\3--|
|-----------------|-----------------2-\1--|
|-2-2-1-1-2-2-3-3-|-2-2-1-1-4-4-5-5-------|
  pm................................      

Repeat K

L2    (1 & 2)                   (3)
|-----------------|---------------------------------|
|-----------------|-----------------4-\3------------|
|-----------------|-----------------2-\1--------3---|
|-2-2-1-1-2-2-3-3-|-2-2-1-1-4-4-5-5-------3--5--1---|
  pm................................      pm....

Repeat K, L1, K, & L2

Outro
|-------------------------------------------------------------|
|-4-\3----------------4-\3------------4-\3--------------------|
|-2-\1--------4---3---2-\1--------3---2-\1--------------------|
|-------3--5--2---1---------3--5--1---------3--5--2--3--2--3--|
        pm....              pm....          pm................

The End.

Erik
----------------------
erik_heino@hotmail.com
Suggest correction
Give kudos to tab author, rate the tab!
1 2 3 4 5
comments
print report bad tab
guest
You may want to rate the tab now too:
select rating
Wanna post a correction for this tab? Suggest correction