Oops, an error
Loading. Please wait.

Pierced From Within Tab

version 1
version 1

Whole song

Interactive

6,411 views 9 this week
no commentswrite comment
1 2 3 4 5
please rate
add to favorites
launch autoscroll
font size
0
reset
how to read this tab
guitar tuner
Autoscroll
slow
fast
+/-
esc
set tempo
stop
Help us to improve Ultimate-Guitar.com Take our survey!
×
Pierced From Within  (part of it)
Suffocation

Riff A
|--------------------------------------------------------------------------|
|--------------------------------------------------------------------------|
|--------------------------------------------------------------------------|
|3-----4--------5-6-4---------------------------6----------5-----3-4-------|
|1-3-4-2----4-5-------6-5-4---5---4---3---------4----------3---2-1-2-2-3-4-|
|--1-2---333----------------4---3---2---44444444---33333333----0-----0-1-2-|
   pm.   pm....       pm........................   pm......    pm    pm...

                     (end Riff A)         fill
|--------------------------------| |----------------|
|--------------------------------| |----------------|
|--------------------------------| |7---------------|
|----------------------------5-6-| |--6---6---------|
|----3-2-----2-1-----3-2-4-6-----| |----8---8-7-6---|
|444-----333-----444-------------| |--------------8-|
 pm.........................

Riff B
|----------------------------------------------------------------|
|----------------------------------------------------------------|
|----------------------------------------------------------------|
|----------------------------------------------------------------|
|4-4-4-4-3-3-4-4-4-4-4-4-3-3-3-3-4-4-4-4-3-3-4-4-4-------2-1-----|
|2-2-2-2-1-1-2-2-2-2-2-2-1-1-1-1-2-2-2-2-1-1-2-2-2-0-1-2-----2-1-|
 pm.............................................................

                                                        (end Riff B)
|-------------------------------------------------------------------|
|-------------------------------------------------------------------|
|-------------------------------------------------------------------|
|----------------------------------------------------------6--5--4--|
|4-4-4-4-3-3-4-4-4-4-4-4-3-3-3-3-4-4-4-4-3-3-4-4--4--2--4--4--3--2--|
|2-2-2-2-1-1-2-2-2-2-2-2-1-1-1-1-2-2-2-2-1-1-2-2--2--0--2-----------|
pm.......................................................

|----------------------------------------------------------------|
|----------------------------------------------------------------|
|----------------------------------------------------------------|
|------------------------------------------------------------5-6-|
|------5---5-4-----5---5-4---4---------4---4-3-----4-----4-5-----|
|2-222---3-----222---3-----5---5-1-111---2-----111---3-5---------|
 pm...   pm    pm.   pm    pm  pm.....   pm    pm...........

Mail or Comments to SadTwist@aol.com
Suggest correction
Give kudos to tab author, rate the tab!
1 2 3 4 5
comments
print report bad tab
guest
You may want to rate the tab now too:
select rating
Please do not post tabs as comments. Select "correction" instead!