Oops, an error
Loading. Please wait.

Reincremation Tab

version 1
version 1

Whole song

Interactive

277 views 1 this week
no commentswrite comment
1 2 3 4 5
please rate
add to favorites
launch autoscroll
font size
0
reset
how to read this tab
guitar tuner
Autoscroll
slow
fast
+/-
esc
set tempo
stop
Help us to improve Ultimate-Guitar.com Take our survey!
×
Author
Band: Suffocation
Album: Effigy of the forotten
Song:  Reincremation



.  - palm mute           /  - slide up to
\  - slide down to       ~  - vibrato
h  - hammer on           b  - Bend
p  - pull off            Suffixes for bend
t  - tap                 f  - full bend    h - half bend
ph - pinched harmonic    q  - quarter bend t - tap bend
*  - see comment         ^  - Hold bend    r release bend
x  - Stuccatto           ~  - vibrato bend
,  - slight palm mute    () - ghost note, sustained note
"  - tremolo note        <> - Trill

Tuning C


Intro Guitar 1
|-------------------------------------------------------------|
|-------------------------------------------------------------|
|-------------------------------------------------------------|
|-9------9----------------------9------9----------8-7-----8-7-|
|-7------7------8-7-----8-7-5-7-7------7------7-8-----7-8-----|
|---0000---0000-----7-8-----------0000---0000-----------------|
|                                             . . . . . . . .
|
|
|Guitar 2
|-------------------------------------------------------------|
|-------------------------------------------------------------|
|-------------------------------------------------------------|
|-9-----------------------------------------------------------|
|-7-----------------------------------------------------------|
|-------------------------------------------------------------|


Guitar 1
|---------------------------------------------------------|
|---------------------------------------------------------|
|---------------------------------------------------------|
|-9------9----------------------9------9----------------9-|
|-7------7------8-7-----8-7-5-7-7------7------10---10-9-7-|
|---0000---0000-----7-8-----------0000---0000-8-8-7-8-7---|
|
|
|
|
|Guitar 2
|----------------------------------------------------------|
|----------------------------------------------------------|
|----------------------------------------------------------|
|-9------9------10-9-------------------------------------9-|
|-7------7------8--7--------------------------10----10-9-7-|
|---------------------------------------------8-8-7--8-7---|


Riff 1
|-------------------------------------------------------------|
|-------------------------------------------------------------|
|-------------------------------------------------------------|
|-9------9-----10/9----10/9-7/9-9------9----------8-7-----8-7-|
|-7------7------8/7-----8/7-5/7-7------7------7-8-----7-8-----|
|---0000---0000-----7-8-----------0000---0000-----------------|
                    . .                        . . . . . . . .

|----------------------------------------------------------------|
|----------------------------------------------------------------|
|----------------------------------------------------------------|
|-9------9-----10/9----10/9-7/9-9------9-----------------9--10-9-|
|-7------7------8/7-----8/7-5/7-7------7------10----10-9-7---8-7-|
|---0000---0000-----7-8-----------0000---0000-8--8-7-8-7---------|
                    . .                          . .

Break Guitar 1 only   |Both
|---------------------|---------|
|---------------------|---------|
|---------------------|---------|
|-9-----8-----8-9-6-8-|---------|
|---7-6---7-6---------|-9\8-9\8-|
|---------------------|-7\6-7\6-|
  . . . . . . . . . .

Riff 2
|----------------------------|---1st---------------|-2nd----------------|
|----------------------------|---------------------|--------------------|
|----------------------------|-10-9----------------|--------------------|
|-------------------9----8---|------10-9-----------|-9-10-7-9-10-7-9-10-|
|----------------------------|-----------10-9------|--------------------|
|-44445544-55556677--777--777|----------------10-9-|--------------------|
                                . .  . .  . . .  .   . .  . . .  . . .


last time          Riff 1
------------------|------------------------------------------------------------|
------------------|------------------------------------------------------------|
------------------|------------------------------------------------------------|
------------------|-9------9-----10/9----10/9-7/9-9------9----------8-7-----8-7|
------------------|-7------7------8/7-----8/7-5/7-7------7------7-8-----7-8----|
44445544-55556677-|---0000---0000-----7-8-----------0000---0000----------------|
                                      . .                       . . . . . . . .


|----------------------------------------------------------|
|----------------------------------------------------------|
|----------------------------------------------------------|
|-9------9-----10/9----10/9-7/9-9------9-----------------9-|
|-7------7------8/7-----8/7-5/7-7------7------10----10-9-7-|
|---0000---0000-----7-8-----------0000---0000-8--8-7-8-7---|
                    . .                          . .


|-------------------------------------------------------------|
|-------------------------------------------------------------|
|-------------------------------------------------------------|
|-9------9-----10/9----10/9-7/9-9------9----------8-7-----8-7-|
|-7------7------8/7-----8/7-5/7-7------7------7-8-----7-8-----|
|---0000---0000-----7-8-----------0000---0000-----------------|
                    . .                        . . . . . . . .

|----------------------------------------------------------------|
|----------------------------------------------------------------|
|----------------------------------------------------------------|
|-9------9-----10/9----10/9-7/9-9------9-----------------9--10-9-|
|-7------7------8/7-----8/7-5/7-7------7------10----10-9-7---8-7-|
|---0000---0000-----7-8-----------0000---0000-8--8-7-8-7---------|
                    . .                          . .



Riff 3
|---------------------------------|
|---------------------------------|
|---------------------------------|
|-----------------------------4\3-|
|-5-4-3-2-3-4-5-6-5-4-3-2-3-4-2\1-|
|-3-2-1-0-1-2-3-4-3-2-1-0-1-2-----|
  . . . . . . . . . . . . . .


Break
|--------------|
|--------------|
|--------------|
|--------------|
|-5----4----3--|
|-3----2----1--|


Riff 4
|-----------------------------------------|
|-----------------------------------------|
|-----------------------------------------|
|-----------------------------------------|
|----------------------------------44-----|
|-00332211-0033444433-00332211-0033--4433-|


Riff 5
|-----------------------------------|
|--------------------------------ph-|
|--------5h6p5--------------------5-|
|-------5------5-----------6--7-----|
|------4---------5-4-5--------------|
|-3333-----------------5555--55-55--|
       ..


*drum roll*


Riff 6
|---------------------------------|
|---------------------------------|
|---------------------------------|
|---------------------------------|
|-5-4-3-2-3-5-4-6-5-4-3-2-3-5-4-3-|
|-3-2-1-0-1-3-2-4-3-2-1-0-1-3-2-1-|
  . . . . . . . . . . . . . . . .


Break
|-------------|
|-------------|
|-------------|
|-------------|
|-2--5-4-3--2-|
|-0--3-2-1--0-|


Riff 7 under solo
|-----------------------------------------------------|
|-----------------------------------------------------|
|-----------------------------------------------------|
|-------------------------2---------------------------|
|-2---2-3---3-6-3-5-2-4-1-0-2---2-3---3-6-3-5-2-----3-|
|-0-0-0-1-1-1---------------0-0-0-1-1-1---------2-1---|
              . . . . . .               . . . . . .


Riff 5
|-----------------------------------|
|--------------------------------ph-|
|--------5h6p5--------------------5-|
|-------5------5-----------6--7-----|
|------4---------5-4-5--------------|
|-3333-----------------5555--55-55--|
       ..


Break
|-------------|
|-------------|
|-------------|
|-------------|
|-2--5-4-3--2-|
|-0--3-2-1--0-|



Riff 7 under solo
|-----------------------------------------------------|
|-----------------------------------------------------|
|-----------------------------------------------------|
|-------------------------2---------------------------|
|-2---2-3---3-6-3-5-2-4-1-0-2---2-3---3-6-3-5-2-----3-|
|-0-0-0-1-1-1---------------0-0-0-1-1-1---------2-1---|
              . . . . . .               . . . . . .


Riff 8
|--------------------------------------------------------------------------------|
|--------------------------------------------------------------------------------|
|--------------------------------------------------------------------------------|
|----------------------------------------------3----------5-6-5------------------|
|-3-2-2-2--2-3-5-6-4-3-5--3-2-2-2--2-3-4-5-6-5-1------5-6-------6-5-2-3-4-5-3-2-3|
|-1-0-0-0--0-1-3-4-2-1-3--1-0-0-0--0-1-2-3-4-3----5-6---------------0-1-2-3-1-0-1|
           . . . . . .


Ending
|-------------------|
|-------------------|
|-------------------|
|-5-4---------------|
|-----5-4---------2-|
|---------5-4-2-1-0-|


End.
Suggest correction
Give kudos to tab author, rate the tab!
1 2 3 4 5
comments
print report bad tab
guest
You may want to rate the tab now too:
select rating
Wanna post a correction for this tab? Suggest correction