Oops, an error
Loading. Please wait.

Synthetically Revived Tab

version 1
version 1

Whole song

Interactive

2,382 views 1 this week
1 commentread comment
1 2 3 4 5
1 last vote to show rating
add to favorites
launch autoscroll
font size
0
reset
how to read this tab
guitar tuner
Autoscroll
slow
fast
+/-
esc
set tempo
stop
Help us to improve Ultimate-Guitar.com Take our survey!
×
SYNTHETICALLY REVIVED - Suffocation - Pierced From Within
Version 1.0 - July 2001
Transcribed by: Lal Vipulananthan (lalithv@uk2.net)

Rhythm Guitar Transcribed on Bass
Tuning (Low - High): Db Gb B E 

Intro                
|-----------|
|-6-5-8-8-8-|
|-4-3-6-6-6-|
|-4-3-6-6-6-|

A                                              Guitar 1 - Left Channel
|-----------------------------------------------------|
|-------------------------------------------6-5-8-8-8-|
|-2-2-2---------2-2-2--------2-2-2--------2-4-3-6-6-6-|
|-0-0-0-000000--0-0-0-000000-0-0-0-000000-0-4-3-6-6-6-|
| . . . ......  . . . ...... . . . ...... .
|					       Guitar 2 - Right Channel
|-----------------------------------------------------|
|-------------------------------------------6-5-8-8-8-|
|-----------------------------------slide---4-3-6-6-6-|
|----------------------------------\\\\\\\--4-3-6-6-6-|
                                          

Repeat A x 3 (both guitars)


Fill 1
|--------------------------|
|-----7-----10-9---------8-|
|---6-----9------8-----7---|
|-5-----8----------7-6-----|
  . . . . . .  . . . . . .


Repeat A x 2, Fill 1


B                                               Play twice
|--------------------------------------------------------|
|--------------------------------------------------------|
|-2------2------2------6---5--2------2-------------------|
|-0-0000-0-0000-0-0000---7----0-0000-0-0000-655555655555-|
    ....   ....   .... . . .    ....   .... ............   

Fill 2
|--------------|
|--------------|
|--------------|
|-211111211111-|
  ............


C   [1,3,5,7]        [2]            [4]             [8] 
|--------------|--------------|-----2-1h2p1---|-------------|
|--------4---3-|--------------|---3---------3-|-------5-4-3-|
|-2--------5---|-2------3---3-|-4-------------|-4-5-6-3-2-1-|
|-0-0000-------|-0-0000-1-0-1-|---------------|-2-3-4-------|
    ....         ....   .   .                   . . . . . .

Repeat C (Right Channel) with C' (Left Channel)

C'    [4]
|-----6-5h6p5---|
|---7---------4-|
|-8-------------|
|---------------|


D1 (under solos)
|--------------------------------------------------------------------|
|------------------4--5--4-----------------------------------3--4--3-|
|------------------2--3--2--5--4--3-111111111111111111111111-1--2--1-|
|-2222222222222222----------3--2--1----------------------------------|
  ................          .  .  . ........................

D2 (under solos)
|--------------------------------------------------------------------|
|------------------4--5--4-------------------------------------------|
|------------------2--3--2--5--4--3-1111111111111111-----2-3-----2-3-|
|-2222222222222222----------3--2--1------------------1-2-----1-2-----|
  ................          .  .  . ................ . . . . . . . .

Repeat (D1+D2)


E1
|--------------------------------------------------------------------|
|-------------------------------3h4----------------------------------|
|------------------5-4------4h5--------------------------------------|
|-2222222222222222-----2-3----------11111111000000004444444433333333-|
  ................ . . . .          ................................                    

E2
|-------------------------------------------------------------------|
|-------------------------------------------------------------------|
|------------------5-4-----4-3-------------55554444------------4444-|
|-2222222222222222-----2-3-----1-2-22222222--------555555553333-----|
  ................ . . . . . . . . ................................ 

Repeat (E1+E2)


F1
|---------------------------------------------------------------------|
|---------4h5---------4h5-3h4-3h4---------4h5---------4h5-3h4-3h4-2h3-|
|---------------------------------------------------------------------|
|-2-2-2-2-----2-2-2-2-------------2-2-2-2-----2-2-2-2-----------------|
  . . . .     . . . .             . . . .     . . . .


F2
|-----------------------------------------------------------------|
|---------3h4---------3h4-2h3-2h3---------3h4---------3h4-2h3-2h3-|
|-----------------------------------------------------------------|
|-1-1-1-1-----1-1-1-1-------------1-1-1-1-----1-1-1-1-------------|
  . . . .     . . . .             . . . .     . . . .

Repeat F1+F2 (Right Channel) with F1'+F2' (Left Channel)

F1'
|---------2h3---------2h3-1h2-1h2---------2h3---------2h3-1h2-1h2-0h1-|
|---------------------------------------------------------------------|
|---------------------------------------------------------------------|
|-2-2-2-2-----2-2-2-2-------------2-2-2-2-----2-2-2-2-----------------|
  . . . .     . . . .             . . . .     . . . .

F2'
|---------1h2---------1h2-0h1-0h1---------1h2---------1h2-0h1-0h1-|
|-----------------------------------------------------------------|
|-----------------------------------------------------------------|
|-1-1-1-1-----1-1-1-1-------------1-1-1-1-----1-1-1-1-------------|
  . . . .     . . . .             . . . .     . . . .


G1
|----------------------------------------------------------|
|----------------------------------------------------------|
|--------------------------------------------------3---4---|
|-2222-0-2222-3-6-2-5-1-4-0-3-1111-0-1111-0-1111-0---4---5-|
  .... . .... . . . . . . . . .... . .... . .... . . . . .

G2
|-----------------------------------------------------------|
|-------------------------------------------------------5-4-|
|-----------------------------------------------0-1-3-4-----|
|-2222-0-2222-3-6-2-5-1-4-0-3-1111-0-1111-0-1-2-------------|
  .... . .... . . . . . . . . .... . .... . . . . . . . . .

Repeat G1

G3
|---------------------------------------------------4---5---|
|-----------------------------------------------4-5---5---5-|
|-------------------------------------------2-3-------------|
|-2222-0-2222-3-6-2-5-1-4-0-3-1111-0-1111-0-----------------|
  .... . .... . . . . . . . . .... . .... . . . . . . . . .


H                                                        Play 4 times
|-------------------------------------------------------------------|
|---------------------------------------------------7-----6-----5---|
|------------------3-4-3-2-3-4-3-2---------55554444-5-----4-----3---|
|-1111222255554444-1-2-1-0-1-2-1-0-22223333-----------3-3---3-3---2-|
  ................ . . . . . . . . .................  . .   . .   .


Fill 3
|--------------------------------------|
|-5-----4-----3----2----3----7----6----|
|-3-----2-----1----2----3----5----4----|
|---2-2---2-2---1--0----1----5----4----| 
    . .   . .   .

I	  [1,2,7,8]                         [3,4]
|------------------------------|------------------------------|
|------------------------------|------------------------------|
|-------------------------4--4-|-------------------------2--2-|
|-3-0-0-6-5-0-3-0-0-6-5-0-2--2-|-1-0-0-5-4-0-1-0-0-5-4-0-0--0-|
  . . . . . . . . . . . . .  .   . . . . . . . . . . . . .  .

	    [5,6]
|------------------------------|
|-------------------------3--3-|
|-2-0-0-6-5-0-2-0-0-6-5-0-1--1-|
|------------------------------|
  . . . . . . . . . . . . .  .


J                         Play twice
|----------------------------------|
|----------------------------------|
|-55----------554455---------------|
|---3366552255------33665522551133-|
  ................................

Repeat J x 2 (Right Channel) with J' (Left Channel)


J'                        Play twice
|-77----------776677---------------|
|---5588774477------55887744773366-|
|----------------------------------|
|----------------------------------|
  ................................ 
   

K						         Play 4 times
|-----------------------------------------------------------------|
|-----------------------------------------------------6-5---------|
|-----8-7-----7-6---------------------6-5-----6-5-------------5-6-|
|-555-----555-----0-000-000-5-8-7-333-----333-----333-----333-----|
  ... . . ... . . . ... ... . . . ... . . ... . . ... . . ... . .

--------------------------------------------------------------------
The End!
Suggest correction
Give kudos to tab author, rate the tab!
1 2 3 4 5
comments
print report bad tab
1 comment total.
0 reply
SubZero5268 10 Jan 21, 2008 09:33 PM

I liked this tab, it was well done. My only 2 complaints are that the tab is laid out in a very odd way that makes it
kind of hard to follow, and of course that there is no solo. No big problems though, accurate tab. Great job!

guest
You may want to rate the tab now too:
select rating
Wanna post a correction for this tab? Suggest correction