Oops, an error
Loading. Please wait.

Thrones Of Blood Tab

version 1
version 1

Whole song

Interactive

4,379 views 9 this week
no commentswrite comment
1 2 3 4 5
please rate
add to favorites
launch autoscroll
font size
0
reset
how to read this tab
guitar tuner
Tab Pro tools
  • play this tab
  • loop segment
  • change instrument
  • show fretboard
  • metronome
×
Best way to learn
"Thrones Of Blood"
Autoscroll
slow
fast
+/-
esc
set tempo
stop
                       SUFFOCATION - THRONES OF BLOOD
                       From the Album PIERCED FROM WITHIN
                       Copyright 1995 Road Runner Records

                       Version 1.0 - June 1999


Transcribed by: Dan Rabago
email Dan at lostsoul69@hotmail.com, for questions or corrections

Visit Malignant Tablature Dominion at:
                http://www.angelfire.com/ak2/MalignantTabs/index.html

Check Out 's Web Page, With More Transcriptions On It:
               /

Check Out DEATH WARP, With More Transcriptions On It:
               http://tiger.towson.edu/~dalvis1


/     slide up
\     slide down
p     pull on
h     hammer on
~     vibrato
.     pm



Tuning:C sharp

     .     .   .     .     .   .
|---------------------------------|
|---------------------------------|
|---------------------------------|
|---------------------------------|
|-8-4-2-8-4-8-4-2-8-4-2-8-4-9-4-2-|
|---2-0---2---2-0---2-0---2---2-0-|


 gtr 1                                  gtr 2
         . . . .             .                                      .       .
|-------------------------------------------------------------------------------|
|-------------------------------------------------------------------------------|
|------------------------------------/----------------------------------/-----/-|
|--------------------------5---4-----/----------------------------5---4-/-4---/-|
|-3------3-4-3-3-----3-4-3-3-5-2--3--/-3-3-3-4-2-3-3-3-4-2--3-4-3-3-5-2-/-2-3-/-|
|-1------1-2-1-1-----1-2-1---3----1--/-1-1-1-2-0-1-1-1-2-0--1-2-1---3---/---1-/-|

       . . . .   .  . . . .   .   .   .  . . . .   .  . . . .   .   .   .
|-------------------------------------------------------------------------|
|-------------------------------------------------------------------------|
|-------------------------------------------------------------------------|
|-4------------4------------4---5---4------------4------------4---5---4---|
|-2-3--3-3-3-4-2-3--3-3-3-4-2-3-3-4-2-3--3-3-3-4-2-3--3-3-3-4-2-3-3-4-2-3-|
|---1--1-1-1-2---1--1-1-1-2---1---2---1--1-1-1-2---1--1-1-1-2---1---2---1-|


    .     .   .   ................   .     .   .   ................
|-------------------------------------------------------------------|
|-------------------------------------------------------------------|
|-------------------------------------------------------------------|
|-------------------------------------------------------------------|
|-8-4-2-8-4-8-4-2------------------8-4-2-8-4-9-4-2------------------|
|---2-0---2---2-0-0000000000000000---2-0---2---2-0-0000000000001111-|


  . . .  . . .  . . . ... . ............ . . .  . . .  . . . ... . . . . .
|--------------------------------------------------------------------------|
|--------------------------------------------------------------------------|
|--------------------------------------------------------------------------|
|--------------------------------------------------------------------5---4-|
|-3-3-2--4-4-2--3-3-2--------------------3-3-2--4-4-2--3-3-2-----3-4-3-4-2-|
|-1-1-0--2-2-0--1-1-0-000-0-000000000000-1-1-0--2-2-0--1-1-0-000-1-2---2---|

  ... . ... . ... . ............ ... . ... . .   .
|----------------------------------------------------|
|----------------------------------------------------|
|----------------------------------------------------|
|----------------------------------------------5---4-|
|-332---442---332----------------332---442---4-3-4-2-|
|-110-0-220-0-110-0-000000000000-110-0-220-0-2---2---|

                                      .
|------------------------------------------|
|------------------------------------------|
|------------------------------------------|
|-7--6-----6--5-----5--4--5--4-----4--3----|
|-5--4--6--4--3--5--3--2--3--2--4--2--1--3-|
|-------4--------3--------------2--------1-|

  ............. .........................................   . . .   . . .
|---------------------------------------------------------------------------|
|---------------------------------------------------------------------------|
|---------------------------------------------------------/-----------------|
|---------------------------------------------------------/-------5-5-4-----|
|-5555554444----44443333-----3333332222----22221111-------/-3-4-5-3-3-2-5-2-|
|----------3333--------333333----------2222--------111111-/-1-2-3-------3-0-|


  .   . . . .... . . .... . . .... . . .   . . . .... . . .... . . .... . .
|---------------------------------------------------------------------------|
|---------------------------------------------------------------------------|
|---------------------------------------------------------------------------|
|---------------------------------------------------------------------------|
|---3------------------------------------4----------------------------------|
|-4---0-0-0-1111-0-0-2222-0-0-1111-0-0-3---0-0-0-1111-0-0-2222-0-0-1111-0-0-|

|-----------------|
|-----------------|
|-----------------|
|-----------------|
|-3-4-3-2-5-4-3-2-|
|-1-2-1-0-3-2-1-0-|

  ... . . . . . . ... . . . . . . .   .   .   .   .   .   .   .
|-----------------------------------------------------------------|
|-----------------------------------------------------------------|
|-----------------------------------------------------------------|
|-----------------------------------------------------------------|
|-------4-3---3---------4-3---3-----2---2---2---2---2---2---2---2-|
|-444-4-----4---1-444-4-----4---1-0---0---0---0---0---0---0---0---|


  ... . . . . . . ... . . . . . . .   .   .   .   .   .   .   .
|-----------------------------------------------------------------|
|-----------------------------------------------------------------|
|-----------------------------------------------------------------|
|-----------------------------------------------------------------|
|-------4-3---3---------7-6---6-----2---2---2---2---2---2---2---2-|
|-444-4-----4---1-666-6-----4---4-0---0---0---0---0---0---0---0---|

  .   .   .   .   .   .   .   .
|---------------------------------|
|---------------------------------|
|---------------------------------|
|---------------------------------|
|---5---5---5---5---4---4---7---5-|
|-0---0---0---0---0---0---0---0---|

  .  .  .  .  .  .  .  .  .         .  .  .
|--------------------------------------------------------------------|
|--------------------------------------------------------------------|
|-----------------------------------------------------4-5p4---4-5p4--|
|--------------------------------------------------------------------|
|-5--4--2--4--3--2--5--4--2---------5--4--2---------2-------2--------|
|-3--2--0--2--1--0--3--2--0--2-2-3--3--2--0--2-2-3--0----------------|

  .  .  .  .  .  .  .  .  .  .  .  .
|------------------------------------------------------------------------------|
|------------------------------------------------------------------------------|
|---------------------------------------------4-5p4----4-5p4----4-5p4----4-5p4-|
|------------------------------------------------------------------------------|
|-5--4--2--4--3--2--6--6--6--5--5--5--------2--------2--------2--------2-------|
|-3--2--0--2--1--0--4--4--4--3--3--3-------------------------------------------|


|----------------------------------------------------------------------------------|
|----------------------------------------------------------------------------------|
|---3-4p3---3-4p3---3-4p3---3-4p3---4-5p4----4-5p4---2-3p2---2-3p2---2-3p2---2-3p2-|
|----------------------------------------------------------------------------------|
|-1-------1-------1-------1-------2-------2--------0-------1-------0-------1-------|
|----------------------------------------------------------------------------------|

                        .  .  .                        .   . . .   . . .   .
|------------------------------------------------------------------------------|
|------------------------------------------------------------------------------|
|----------------------------------------------------------------/-------------|
|-3-3-3-4-3--3-3-3-4-3-----------3-3-3-4-3--3-3-3-4-3------5-4---/-------4---3-|
|-1-1-1-2-1--1-1-1-2-1--3--4--3--1-1-1-2-1--1-1-1-2-1--3-4-3-2-5-/-2-3-2-2-5-1-|
|-1-1-1-2-1--1-1-1-2-1--1--2--1--1-1-1-2-1--1-1-1-2-1--1-2-----3-/-0-1-0---3---|

  . . . .   .  . . . .   .   .  . . . .   .  . . . .   .   .   .
|----------------------------------------------------------------|
|----------------------------------------------------------------|
|----------------------------------------------------------------|
|---------4------------4---4------------4------------4---5---4---|
|-3-4-3-4-2-3--3-4-3-4-2-3-2-3--3-4-3-4-2-3--3-4-3-4-2-3-3-3-2-3-|
|-1-2-1-2---1--1-2-1-2---1---1--1-2-1-2---1--1-2-1-2---1---1---1-|

  .  .     .  .       .       . . . .
|------------------------------------------------------------------------|
|------------------------------------------------------------------------|
|--------------------------------------4-3------/------------------------|
|-------3--------3-3-----4-4--3-3-3-3--2-1-4-3--/-4-3-----3-2------------|
|-4--3--1--4--3--1-1--4--2-2--1-1-1-1--2-1-2-1--/-----2-------1------2-1-|
|-2--1--1--2--1--1-1--2--2-2--1-1-1-1------2-1--/-------1-------1-2------|

  .   .   .   .   .   .   .     . . . . . . .
|---------------------------------------------|
|---------------------------------------------|
|-----------------------------/---------------|
|-----------------------------/---------------|
|---9---9---8---8---4---7---6-/-5-6-5-4-2-3-4-|
|-0---0---0---0---0---0---0---/-3-4-3-2-0-1-2-|

  .   .   . ...      . . . . . . .    .   . . . .   .   .   .   . ...
|---------------------------------------------------------------------|
|---------------------------------------------------------------------|
|---------------------------------------------------------------------|
|---------------------------------------------------------------------|
|---7---6--------6-5-------6-5------5---4---------4---3---4---3-------|
|-0---0---0-000------0-6-7-----7-6----0---0-0-0-0---0---0-2-0-1-0-000-|

  .   .   . ...     . . . . . . . . . . . . . . . . . . . . . . . . . . .
|-------------------------------------------------------------------------|
|-------------------------------------------------------------------------|
|---------------------------------------------------------8-7---8-7-------|
|-------------------------------------6-5---6-5-------6-7-----8-----8-7-6-|
|---7---6-------6-5-------6-5-----6-7-----7-----7-6-5---------------------|
|-0---0---0-000-----0-6-7-----7-6-----------------------------------------|

    . . . . .  . . .
|----------------------|
|----------------------|
|-/------------------/-|
|-/-------8-7--7-6---/-|
|-/-0-6-7-6-5--5-4-6-/-|
|-/-0-4-5----------4-/-|


Listen to it to piece it together.
comments
We did not receive enough feedback on this tab! Please rate:
print report bad tab
1 2 3 4 5
I want to post or [tab]
guest
You may want to rate the tab now too:
select rating
Please do not post tabs as comments. Select "correction" instead!