Oops, an error
Loading. Please wait.

All The Trees Of The Field Will Clap Their Hands Tab

version 2
version 2

Whole song

Interactive

13,845 views 21 this week
9 commentsread comments
1 2 3 4 5
x 3
add to favorites
launch autoscroll
font size
0
reset
how to read this tab
guitar tuner
Autoscroll
slow
fast
+/-
esc
set tempo
stop
Help us to improve Ultimate-Guitar.com Take our survey!
×
Difficulty
Capo
novice
5th fret
Hey guys, I play the banjo a lot, and since this song is a banjo song, I transferred it 
the guitar. And you MUST tune high e to a D!!!! So ya, this is my first tab, good luck, 
sounds really correct to me. CAPO on 5th fret.


d|----0--------------0--------------0---------------0--------------|
B|----0h1p0----0-----0h1p0----0-----0h1p0----0------0h1p0----0-----|
G|---2-------0------0-------0------2-------0-------0-------0-------|
D|--0--------------2-------------3----------------2----------------|
A|-----------------------------------------------------------------|
E|-----------------------------------------------------------------|
Suggest correction
Give kudos to tab author, rate the tab!
1 2 3 4 5
comments
print report bad tab
9 comments total. Showing first comments.
0 reply
abuckner28 147 Apr 18, 2007 12:50 AM

It's actually capo 4, but everything else is great. Thanks!

0 reply
mistaman 295 Jan 04, 2008 05:03 PM

yeah i couldnt figure out why it sounded off- abuckner is right its totally capo 4! sounds awesome though

0 reply
EvilPuppetMaste 402 Jan 18, 2008 05:32 PM

It's pretty close but I have some minor corrections. As the other commenters mentioned, it's capo 4, but there is also a
couple of notes different:


1 & 2 & 3 & 4 & 1 & 2 & 3 & 4 &
D|----------0---------------0--------|----------0---------------0-----0--|
B|----------0h3---3---------0h1---0--|----------0h1---1---------0h1------|
G|------2-------0-------0-------0----|------2-------0-------0-------0----|
D|--0---------------2----------------|--3---------------2----------------|
A|-----------------------------------|-----------------------------------|
E|-----------------------------------|-----------------------------------|



guest
You may want to rate the tab now too:
select rating
Wanna post a correction for this tab? Suggest correction