Oops, an error
Loading. Please wait.

Borderline Tab

4,828 views 12 this week
2 commentsread comments
1 2 3 4 5
x 4
add to favorites
launch autoscroll
font size
0
reset
how to read this tab
guitar tuner
Autoscroll
slow
fast
+/-
esc
set tempo
stop
Help us to improve Ultimate-Guitar.com Take our survey!
×
Author
Difficulty
Capo
novice
8th fret
-------------------------------------------------------------------------------
Borderline – Sufjan Stevens
-------------------------------------------------------------------------------
Tabbed by: Pete Hoover
Email: Pete(dot)Hoover(at)gmail(dot)com

Tuning: Standard, Capo 8

e|------------------------------------------------------------------------------|
B|--1---1-----------------------------1----0------------------------------------|
G|----2-----2-1----0-----1----1---2-----2---------------------------------------|
D|---------------0----------2---------------------------------------------------|
A|--0-----0---------------------0-----------------------------------------------|
E|------------3-------0--0-----------0-------0----------------------------------|

This riff is repeated throughout the song, basically.

At some points, during the end of the song, he hits the high e randomly. Listen for 
and add as you see necessary.
Suggest correction
comments
print report bad tab
2 comments total.
+2 reply
Clayterman 10 Jul 14, 2008 04:16 PM

---------------------------------------------
-1---1-----1----0-----1---1-----1---0--------
------------------------2---2-----0----------
---3-----0----0-----0---------0-------0------
-0-----0--------------0----------------------
-----------3------0-------------0------------

Capo 8

0 reply
noisecaster 10 Jan 10, 2016 10:56 PM

The tab is just blatantly wrong. The tab states to play a D#, but the song is in G so not only is that note not in the riff, but it also sticks out like a sore thumb.

guest
You may want to rate the tab now too:
select rating
Wanna post a correction for this tab? Suggest correction