Oops, an error
Loading. Please wait.

Casimir Pulaski Day Tab

version 2
version 2

Whole song

60,581 views 147 this week
5 commentsread comments
1 2 3 4 5
accurate
x 17
add to favorites
launch autoscroll
font size
0
reset
how to read this tab
guitar tuner
Autoscroll
slow
fast
+/-
esc
set tempo
stop
Help us to improve Ultimate-Guitar.com Take our survey!
×
Author
Capo
1st fret
Capo: 1st fret
  D        C                Am   G
     v ^ v ^       v^       v^       v^
e|---2-2-2-3-------33-------00-------33--------------------------|
b|---3-3-3-1-------11-------11-------33--------------------------|
g|-2-2-2-2-0-------00-------22-------00--------------------------|
d|0--0-0-0-2---0/2-22---0/2-22-------00--------------------------|
a|-----------3--------2--------0--0/2--3-------------------------|
E|-------------------------------3-------------------------------|

v = Down stroke
^ = up stroke
Suggest correction
comments
print report bad tab
5 comments total. Showing first comments.
+4 reply
Haleth 72 wrote on October 1 2005, 01:34 am

When this is how he played it live

Capo: 1st fret
D C Am G
^ v ^ ^ ^v^ ^v^
e|-----2-2-3-------3---------000--------333-------------------------|
b|-----3-3-1-------1---------111--------000-------------------------|
g|-0/2-2-2-0-------0---------222--------000-------------------------|
d|0----0-0-2---0/2-2-----0/2-222--------000-------------------------|
a|---------3-3-------2-0-----------0/2------------------------------|
E|-------------------------------3----------------------------------|

0 reply
Wence 71 wrote on October 1 2005, 10:07 am

Yeah...I left out a hammer on in the D, and I accidentally forgot the A in the Am chord after the B...

0 reply
dominoz56 70 wrote on November 29 2005, 07:50 pm

great tab, this is really an incredible song

guest
You may want to rate the tab now too:
select rating
Wanna post a correction for this tab? Suggest correction