Oops, an error
Loading. Please wait.

Chicago Tab

version 2
version 2

Whole song

Interactive

16,583 views 21 this week
no commentswrite comment
1 2 3 4 5
accurate
x 4
add to favorites
launch autoscroll
font size
0
reset
how to read this tab
guitar tuner
Tab Pro tools
  • play this tab
  • loop segment
  • change instrument
  • show fretboard
  • metronome
Autoscroll
slow
fast
+/-
esc
set tempo
stop
Contributor
Artist: Sufjan Stevens
Track: Chicago
Album: Sufjan Stevens invites you to Come On! Feel the Illinoise!

incredible musician


Intro:

E------------------------|
B------------------------|
G---------------0--------|
D------------------------|
A---------0--2-----------|
E------3-----------------|

D, Am, C, G  x2

Verse:

D, Am, C, G  x4 (one strum each)

this part is different for different versions

E-------------------------------------|
B-------------------------------------|
G-2-2-4-2--0-0------4-0-0----4-0--2---|   x2
D-----------------2--------2----------|
A-------------------------------------|
E-------------------------------------|

E-------------------------------------|
B-------------------------------------|
G-2-4-5-4-0---0------4-0-0----4-0--2--|   x2
D-----------2------2--------2---------|
A-------------------------------------|
E-------------------------------------|


Chorus:

D, Am, C, G  x2


Solo:

E--5-5-7-5---------7---------7---5----|
B----------8-8---5---8-8---5---8------|
G-------------------------------------|
D-------------------------------------|
A-------------------------------------|
E-------------------------------------|

E--5-5-7-5---------7------------------|
B----------8-8---5---8-8----8-7-5-3---|
G-------------------------------------|
D-------------------------------------|
A-------------------------------------|
E-------------------------------------|

E--5-7-8-7-----------7---------7---5--|
B----------8-5-8---5---8-8---5---8----|
G-------------------------------------|
D-------------------------------------|
A-------------------------------------|
E-------------------------------------|


E--5-7-8-7-----------7----------------|
B----------8-5-8---5---8-8---8-7-5-3--|
G-------------------------------------|
D-------------------------------------|
A-------------------------------------|
E-------------------------------------|
comments
print report bad tab
I want to post or [tab]
guest
You may want to rate the tab now too:
select rating
Please do not post tabs as comments. Select "correction" instead!