Oops, an error
Loading. Please wait.

Death With Dignity tab

version 4
version 4

Whole song

Interactive

1,447 views 9 this week
1 commentread comment
1 2 3 4 5
2 more votes to show rating
add to favorites
×
Save as Personal and add changes to this tab that will be seen only by you. Learn more ›
×
You can save this tab as Personal to edit and correct it or add notes. All changes will be seen only by you. Learn more »
launch autoscroll
font size
0
reset
how to read this tab
guitar tuner
edit
Autoscroll
slow
fast
+/-
esc
set tempo
stop
-------------------------------------------------------------------------------
                             DEATH WITH DIGNITY - Sufjan Stevens
-------------------------------------------------------------------------------
Tabbed by: Santivin

Tuning: Standard

CAPO ON 7TH FRET (Chords relative to Capo)

SOLO:
Tabbed by: Diogo Medeiros
E-mail: diogobiscaiam@gmail.com

Tuning: Standard


CAPO ON 7TH FRET (Chords relative to Capo)


        A                                 D

e|C-----0-------0-------0-------0-------|-2-------2-------2-------2------------|
B|A-------2---2---2---2---2---2---2---2-|---3---3---3---3---3---3---3---3------|
G|P---------2-------2-------2-------2---|-----2-------2-------2-------2--------|
D|O-------------------------------------|--------------------------------------|
A|7-------------------------------------|--------------------------------------|
E|TH------------------------------------|--------------------------------------|

        C#m                               Bm              A/C#

e|C-----4-------4-------4-------4-------|-2-------2-------0-------0------------|
B|A-------5---5---5---5---5---5---5---5-|---3---3---3---3---2---2---2---2------|
G|P---------6-------6-------6-------6---|-----4-------4-------2-------2--------|
D|O-------------------------------------|--------------------------------------|
A|7-------------------------------------|--------------------------------------|
E|TH------------------------------------|--------------------------------------|


        D                                 Bm              A/C#

e|C-----2-------2-------2-------2-------|-2-------2-------0-------0------------|
B|A-------3---3---3---3---3---3---3---3-|---3---3---3---3---2---2---2---2------|
G|P---------2-------2-------2-------2---|-----4-------4-------2-------2--------|
D|O-------------------------------------|--------------------------------------|
A|7-------------------------------------|--------------------------------------|
E|TH------------------------------------|--------------------------------------|

        D                                 

e|C-----2-------2-------2---------------|
B|A-------3---3---3---3-----------------|
G|P---------2-------2-------------------|
D|O-------------------------------------|
A|7-------------------------------------| 
E|TH------------------------------------|



INTRO: A | D | C#m | Bm - A/C# | D | Bm - A/C# | D 


A                          D                              C#m
Spirit of my silence I can hear you, but I'm afraid to be near you
            Bm    A/C#      D

And I don't know where to begin
            Bm    A/C#      D

And I don't know where to begin


A                                  D                  C#m
Somewhere in the desert there's a forest, and an acre before us
             Bm   A/C#        D

But I don't know where to begin
             Bm   A/C#        D

But I don't know where to begin
                             C#m            Bm         A/C#   D

Again I lost my strength completely, or be near me tired old mare
                        Bm      A/C#      D

With the wind in your hair


(SAME CHORD SEQUENCE THROUGHOUT THE REST OF THE SONG) 


Amethyst and flowers on the table, is it real or a fable?

Well I suppose a friend is a friend

And we all know how this will end


Chimney swift that finds me be my keeper, silhouette on the seater

What is that song you sing for the dead

What is that song you sing for the dead

I see the signal searchlight strike me, in the window of my room

Well I got nothing to prove

Well I got nothing to prove

First solo/tab submitted. Hope you enjoy!
Primeiro solo/tab enviado. Espero que gostem!
Not related to capo

e||-----------------------------|------------------|--------------------------------|
B||-----------------------------|-17------14-------|---14----14---------------------|
G||-----------------13--14--16--|------------16----|------16----16--13--16-----13---|
D||-----13--14--16--------------|------------------|--------------------------------|
A||-----------------------------|------------------|--------------------------------|
E||-----------------------------|------------------|--------------------------------|

e|------------------------|-----------------|
B|------------------------|-----------------|
G|----13h16---------------|----13-----11p9--|
D|-----------11-----------|-----------------|
A|------------------------|-----------------|
E|------------------------|-----------------|

e|------------------------|-----------------|
B|------------------------|-----------------|
G|----13h16---------------|----13-----11p9--|
D|-----------11-----------|-----------------|
A|------------------------|-----------------|
E|------------------------|-----------------|

I forgive you mother I can hear you, and I long to be near you

But every road leads to an end

Yes every road leads to an end

Your aberration passes through me, in the willows and five red hens

You'll never see us again

You'll never see us again





************************************

| /   slide up
| \   slide down
| h   hammer-on
| p   pull-off
| ~   vibrato
| +   harmonic
| x   Mute note
| b   Bend
| pb  Pre-bend
| br  Bend release
| pbr Pre-bend release
| brb Bend release bend

************************************

            
            
Suggest correction
Creating personal tab
Creating personal tab
You can edit any tab online and save it as your Personal.

You can edit, replace or remove any tab part or add personal notes – all changes will be seen only by you.

Personal tabs can be accessed anytime from any device, even offline.
Learn more »
Give kudos to tab author, rate the tab!
1 2 3 4 5
comments
print report bad tab
1 comment total.
0 reply
deboralara 12 Dec 31, 2015 09:20 AM

Thanks for the solo!

guest
You may want to rate the tab now too:
select rating
Wanna post a correction for this tab? Suggest correction