Oops, an error
Loading. Please wait.

Death With Dignity Tab

version 5
version 5

Whole song

Interactive

664 views 18 this week
no commentswrite comment
1 2 3 4 5
2 more votes to show rating
add to favorites
launch autoscroll
font size
0
reset
how to read this tab
guitar tuner
Autoscroll
slow
fast
+/-
esc
set tempo
stop
Author
Difficulty
Capo
intermediate
9th fret
About this tab version
This might not be exactly how Sufjan plays it, but the capo on ninth and the bass notes give it a fuller sound than some of the previous tabs, especially if playing on acoustic. Was this info helpful? Yes No
1.      DEATH WITH DIGNITY

CAPO 9
CHORDS/TAB RELATIVE TO CAPO

INTRO/MAIN PROGRESSION:


    Gmaj7                            C
e|---------------------------------------------------------------------|
B|--3-------3-------3-------3-------5-------5-------5-------5-------5--|
G|----0---0---0---0---0---0---0---0---0---0---0---0---0---0---0---0----|
D|------4-------4-------4-------4-------2-------2-------2-------2------|
A|----------------------------------3-------3-------3-------3-------3--|
E|--3-------3-------3-------3------------------------------------------|

   D                                Am7             Bm/G 
e|---------------------------------------------------------------------|
B|--7-------7-------7-------7-------5-------5-------3-------3----------|
G|----0---0---0---0---0---0---0---0---0---0---0---0---0---0---0---0----|
D|------4-------4-------4-------4-------2-------5-------0-------0------|
A|--5-------5-------5-------5-------0-------0-------2-------2----------|
E|---------------------------------------------------------------------|
   
   C                               Am7             Bm/G
e|---------------------------------------------------------------------|
B|-5-------5-------5-------5-------5-------5-------3-------3-----------|
G|---0---0---0---0---0---0---0---0---0---0---0---0---0---0---0---0-----|
D|-----2-------2-------2-------2-------2-------2-------0-------0-------|
A|-3-------3-------3-------3-------0-------0-------2-------2-----------|
E|---------------------------------------------------------------------|

   C
e|-----------------------------|
B|-5-------5-------5-------5~--|
G|---0---0---0---0---0---0-----|
D|-----2-------2-------2-------|
A|-3-------3-------3-------3~--|
E|-----------------------------|

Use these chord shapes and the picking pattern to play the following:

Gmaj7                      C                              D
Spirit of my silence I can hear you, but I'm afraid to be near you
             Am7  Bm/G      C
And I don't know where to begin
             Am7  Bm/G      C
And I don't know where to begin

Gmaj7                             C                     D
Somewhere in the desert there's a forest, and an acre before us
             Am7  Bm/G      C
But I don't know where to begin
             Am7  Bm/G      C
But I don't know where to begin
                            D               Am7      Bm/G
Again I lost my strength completely, oh, be near me, tired old
 C    Bm/G                  Am7   Bm/G   C
mare, with the wind in your hair

Gmaj7                       C                      D
Amethyst and flowers on the table, is it real or a fable?
         Am7      Bm/G        C
Well, I suppose a friend is a friend
           Am7  Bm/G          C
And we all know how this will end

Gmaj7                             C
Chimney swift that finds me be my keeper,
                  D
Silhouette of the cedar
             Am7       Bm/G        C
What is that song you sing for the dead?
             Am7       Bm/G        C
What is that song you sing for the dead?
                             D                Am7    Bm/G  C
I see the signal searchlight strike me in the window of my room
Bm/G                   Am7          Bm/G         C          Bm/G
Well, I got nothing to prove
Bm/G                   C
Well, I got nothing to prove

[instrumental break: verse chords x1]

Gmaj7                        C
I forgive you, mother, I can hear you,
                 D
And I long to be near you
          Am7  Bm/G        C
But every road leads to an end
           Am7  Bm/G        C
Yes, every road leads to an end

                       D                  Am7        Bm/G     C
Your apparition passes through me in the willows and five red hens
Bm/G                Am7          Bm/G         C           Bm/G
You'll never see us again
                    Am7      Bm/G            C
You'll never see us again
Suggest correction
Give kudos to tab author, rate the tab!
1 2 3 4 5
comments
print report bad tab
guest
You may want to rate the tab now too:
select rating
Wanna post a correction for this tab? Suggest correction