Oops, an error
Loading. Please wait.

Drawn To The Blood tab

2,134 views 21 this week
1 commentread comment
1 2 3 4 5
x 6
add to favorites
×
Save as Personal and add changes to this tab that will be seen only by you. Learn more ›
×
You can save this tab as Personal to edit and correct it or add notes. All changes will be seen only by you. Learn more »
launch autoscroll
font size
0
reset
how to read this tab
guitar tuner
edit
Autoscroll
slow
fast
+/-
esc
set tempo
stop
-------------------------------------------------------------------------------
             Sufjan Stevens - Drawn To The Blood         
-------------------------------------------------------------------------------
Tuning: Standard, but capo on 6 (tabbed relative to capo)

Sufjan does this upwards strumming all the time. I guess you can do whatever
you like.

Tab is based on a live performance, which may differ from studio version.

There are some open strings I didn't tab. The open strings are almost all in tune,
so just add them.

Intro
e|---------------------------------------------------------------------------|
B|---------------3--------------------3------1-------3-----------------------|
G|---------------2--------------------2------2-------2-----------------------|
D|-2------0------0------2------0------0------2-------0------2-------4--------|
A|-2-[x8]-2-[x4]---[x8]-3-[x4]-2-[x4]---[x8]-0-[x12]---[x4]-3-[x12]-5-[x4]---|
E|-0------2------2------3------3------2--------------2------3-------5--------|

I'm drawn to the blood... (same as intro, play twice)
e|---------------------------------------------------------------------------|
B|---------------3--------------------3------1-------3-----------------------|
G|---------------2--------------------2------2-------2-----------------------|
D|-2------0------0------2------0------0------2-------0------2-------4--------|
A|-2-[x8]-2-[x4]---[x8]-3-[x4]-2-[x4]---[x8]-0-[x12]---[x4]-3-[x12]-5-[x4]---|
E|-0------2------2------3------3------2--------------2------3-------5--------|

For my prayer has always been love
e|---------------------------------------------------------------------------|
B|---------------------------------------------------------------------------|
G|-4------5------------------------------------------------------------------|
D|-5------3------2------5------0---------------------------------------------|
A|-5-[x8]-3-[x8]-3-[x8]-7-[x4]-2-[x4]----------------------------------------|
E|-3------5------3------7------2---------------------------------------------|

What did I do to deserve this...
e|---------------------------------------------------------------------------|
B|---------------------------------------------------------------------------|
G|---------------------------------------------------------------------------|
D|-2------5------0------2----------------------------------------------------|
A|-3-[x8]-7-[x4]-2-[x4]-3-[x16]----------------------------------------------|
E|-3------7------2------3----------------------------------------------------|

Then repeat the last three bars. However, that last [332xxx] is played only 
8 times! 
End with:

now? How did this happen?
e|---------------------------------------------------------------------------|
B|-1------1------------------------------------------------------------------|
G|-2------0------2-----------------------------------------------------------|
D|-2------2------0-----------------------------------------------------------|
A|-0-[x8]-3-[x4]-0-[x4]------------------------------------------------------|
E|--------3------2-----------------------------------------------------------|

That's all.



************************************

| /   slide up
| \   slide down
| h   hammer-on
| p   pull-off
| ~   vibrato
| +   harmonic
| x   Mute note
| b   Bend
| pb  Pre-bend
| br  Bend release
| pbr Pre-bend release
| brb Bend release bend

************************************

            
            
Suggest correction
Creating personal tab
Creating personal tab
You can edit any tab online and save it as your Personal.

You can edit, replace or remove any tab part or add personal notes – all changes will be seen only by you.

Personal tabs can be accessed anytime from any device, even offline.
Learn more »
comments
print report bad tab
1 comment total.
0 reply
_mariaines 31 Jan 10, 2017 07:49 PM

Sounds way better (and easier to play once you have the fingerings down) than the open chord version. Thanks!

guest
You may want to rate the tab now too:
select rating
Wanna post a correction for this tab? Suggest correction