Oops, an error
Loading. Please wait.

Dress Looks Nice On You Tab

version 1
version 1

Whole song

9,755 views 24 this week
1 commentread comment
1 2 3 4 5
accurate
x 5
add to favorites
launch autoscroll
font size
0
reset
how to read this tab
guitar tuner
Tab Pro tools
  • play this tab
  • loop segment
  • change instrument
  • show fretboard
  • metronome
×
Best way to learn
"Dress Looks Nice On You"
Autoscroll
slow
fast
+/-
esc
set tempo
stop
Capo
8th fret
-------------------------------------------------------------------------------
                             SONG NAME - Band Name
-------------------------------------------------------------------------------
Tabbed by: drewbix
Email:

Tuning: Standard, Capo 8th
Fingerpicked


Main Verse:
e|------------------------------------------------------------------|
B|-----------------------------3------------3--------3--------------|
G|---------0------------0--------0------------0---------0-----------|
D|-----2--------0-0h2------2----------------------------------------|
A|--0------------------------------3------------2-------------------|
E|----------------------------------------------------------3-------|

When Banjo enters
e|---------------------------0-------0-------0-----------------------|
B|-----------------------------3-------3-------3---------------------|
G|------------0---0-0h2-----------0-------0--------------------------|
D|------0h2----------------------------------------------------------|
A|--0h2----------------------3-------2-------------------------------|
E|-------------------------------------------3-----------------------|

Keyboard enters:

Something like

D then C#

Pretty sad tab, but a start.



| /  slide up
| \  slide down
| h  hammer-on
| p  pull-off
| ~  vibrato
| +  harmonic
| x  Mute note
===============================================================================
comments
print report bad tab
1 comment total.
0 reply
ChristopherS241 wrote on April 21 2005, 12:00 am

Seems like you got the second part right (the part with the banjo), but you tabbed the first part backwords or reflected or something. It should look like this:


e|------------------------------------------------------|
b|----------------------------------3--------3----------|
G|------0-----------0------------0--------0--------0----|
D|---2-----0--0-h2-----2--------------------------------|
A|0---------------------------3--------2----------------|
E|----------------------------------------------3-------|


Capo 8th fret. Just repeat over and over again.

I want to post or [tab]
guest
You may want to rate the tab now too:
select rating
Please do not post tabs as comments. Select "correction" instead!