Oops, an error
Loading. Please wait.

Flint Tab

version 1
version 1

Whole song

7,208 views 12 this week
4 commentsread comments
1 2 3 4 5
x 3
add to favorites
launch autoscroll
font size
0
reset
how to read this tab
guitar tuner
×
Best way to learn
"Flint"
Autoscroll
slow
fast
+/-
esc
set tempo
stop
Author
Difficulty
novice
-------------------------------------------------------------------------------
                             Sufjan Stevens - Flint
-------------------------------------------------------------------------------
Tabbed by:Vincent
Email:v_oude_lansink@hotmail.com

Tuning: normal
Piano arranged for guitar

The Main Theme
e|---------------------------------------------------------------------------|
B|---------------------------------------------------------------------------|
G|---------------------------------------------------------------------------|
D|---5--8--7-\(8)-10--7-\-7----\---------------------------------------------|
A|-----------\-7--------\-8----\--5---------x2-------------------------------|
E|---6-------\-8--------\---8--\-(6)-----------------------------------------|
     Bb        C          F       Bb


e|---------------------------------------------------------------------------|
B|---------------------------------------------------------------------------|
G|---------------------------------------------------------------------------|
D|--5--------\---------\----7--\---------------------------------------------|
A|------8--5-\--s/8-7--\--8-8--\------------x2-------------------------------|
E|--6--------\------8--\-------\--6------------------------------------------|
    Bb         C          F       Bb

This was the main theme, In the rest of the song it's just Sufjan sings over these chords:

Bb (658xxx)
C  (8710xxx)
F  (x8710xx)
Bb (658xxx)

This is the whole songstructure so you can play and sing along. You can also just play 
if you want to. Maybe this will help you.
Greetings
Suggest correction
Give kudos to tab author, rate the tab!
1 2 3 4 5
comments
print report bad tab
4 comments total. Showing first comments.
0 reply
ufonacious 30 Jan 26, 2006 02:54 PM

excelent tab, its perfect.

0 reply
ufonacious 30 Jan 26, 2006 03:00 PM

on closer inspection, no it isnt perfect, but its damn close.

it should go:
e|-----------|
B|-----------|
G|-----------|
D|---5--7--8-|
A|-----------|
E|---6-------|

as opposed to 8--7.

0 reply
indiglopulse 83 Jul 09, 2006 09:40 AM

play it faster... what he has is correct. it doesn't follow the vocals note for note. great tab- awesome job. good call on 8710 though... that's one hell of a reach.

guest
You may want to rate the tab now too:
select rating
Wanna post a correction for this tab? Suggest correction