Oops, an error
Loading. Please wait.

Flint Tab

version 2
version 2

Whole song

1,414 views 12 this week
no commentswrite comment
1 2 3 4 5
please rate
add to favorites
launch autoscroll
font size
0
reset
how to read this tab
guitar tuner
Autoscroll
slow
fast
+/-
esc
set tempo
stop
Help us to improve Ultimate-Guitar.com Take our survey!
×
Difficulty
novice
-----------------------------------------------------------------------------
			             Flint - Sufjan Stevens
-----------------------------------------------------------------------------

Tabbed by: musingmoose
Email: musingmoose@gmail.com

Tuning: Standard

Listen to the song to get the actual sound down. ^ ^
This is the piano part. It's missing the cords, so if you figure that out go 
ahead and repost this. 


e|-----------------|-----------------|-------------------|------------------|
B|---------1-------|----------1------|-------------------|------------------|
G|0--2-3-----2-----|-0--2-3-----2----|0------------------|0-----------------|
D|-------2-------0-|--------2------0-|--3-0--3-2--3-3---0|--3-0--3-2--3-3--0|
A|-------------3---|-------------3---|----------------3--|----------------3-|
E|-----------------|-----------------|-------------------|------------------|

e|-----------------|-----------------|-------------------|------------------|
B|----------1------|-----------------|------------1------|------------------|
G|-0---2-3----2----|-0--2-3---2------|--0--2-3-----2-----|0-----------------|
D|---------2-----0-|--------2---3--0-|--------2-------0--|--3-0--3-2--3-3--0|
A|-------------3---|-------------3---|--------------3----|------------------|
E|-----------------|-----------------|-------------------|------------------|

e|-----------------|-----------------|-------------------|------------------|
B|---3--3--1-------|-3--3--1---------|-------------------|------------------|
G|-----------3--2--|----------3--2---|0------------------|--0---------------|
D|-----------------|---------------0-|--3-0--3-2--3-3--0-|----3-0--3-2--3-3-|
A|-----------------|-------------3---|---------------3---|------------------|
E|-----------------|-----------------|-------------------|------------------|

*Trumpet Solo Starts

|----------------0-1--3-5--6-8-|
|-----------1-3----------------|   *It gets higher on the piano, but I can't
|--0--2-3----------------------|     Tab any higher
|------------------------------|
|------------------------------|
|------------------------------|

	If you listen to the song, you'll find where each part goes.
		It basically repeats itself.
			
				http://zomgmoose.weebly.com
=============================================================================
Suggest correction
What's this?
You can suggest a correction to this tab. Community and Mods will review your correction and vote to approve or reject it.
comments
We did not receive enough feedback on this tab! Please rate:
print report bad tab
1 2 3 4 5
guest
You may want to rate the tab now too:
select rating
Please do not post tabs as comments. Select "correction" instead!