Oops, an error
Loading. Please wait.

Happy Birthday Tab

version 1
version 1

Whole song

10,787 views 12 this week
3 commentsread comments
1 2 3 4 5
x 4
add to favorites
launch autoscroll
font size
0
reset
how to read this tab
guitar tuner
Autoscroll
slow
fast
+/-
esc
set tempo
stop
Help us to improve Ultimate-Guitar.com Take our survey!
×
Author
Difficulty
Capo
novice
6th fret
----------------------------------------------------------------------------
                    HAPPY BIRTHDAY - Sufjan Stevens
----------------------------------------------------------------------------
Tabbed by:      Vinny Roberts
Email:          scimitar_eater@hotmail.com

Tuning: Standard with capo on 6th fret (Bb,D#,G#,C#,F,Bb)

e|-------------------------|-------------------------|
B|-----1-----1-----1-----1-|-----1-----1-----1-----1-|
G|---0-----0-----0-----0---|---0-----0-----0---0-0---|
D|-------------------0-----|-2-----3-----2-----------|
A|-0-----2-----3-----------|-------------------------|
E|-------------------------|-------------------------|

e|-------------------------|-------------------------|
B|-----1-----1-----1-----1-|-----1-----1-----1---1-1-|
G|---0-----0-----0-----0---|---0-----0-----0---------|
D|-3-----2-----0-----------|-------0-----------------|
A|-------------------3-----|-2-----------3-----3-----|
E|-------------------------|-------------------------|

| /  slide up
| \  slide down
| h  hammer-on
| p  pull-off
| ~  vibrato
| +  harmonic
| x  Mute note
============================================================================
Suggest correction
comments
print report bad tab
3 comments total.
0 reply
bdub2291 10 Aug 13, 2006 04:27 PM

excellent. very, very good.

+1 reply
bdub2291 10 Aug 13, 2006 09:25 PM

whoops, i take it back. you have it the wrong way, it should be..

e|-------------------------|
B|---1-----1-----1-----1---|
G|-----0-----0-----0-----0-|
D|-------------------0-----|
A|-0-----2-----3-----------|
E|-------------------------|

0 reply
Spykles 10 Aug 10, 2007 06:40 PM

Hi, you have the bass notes right, except for the last one, but the high notes are not quite right. The best way to play this is with the capo on the second fret (in standard) and play the high notes open, it goes f#, then c# below that (E and B dtrings respectively). I have submitted a tab myself which should be up soon so you can see what I mean. Nice one for putting something up though mate, 3 stars!

guest
You may want to rate the tab now too:
select rating
Wanna post a correction for this tab? Suggest correction