Oops, an error
Loading. Please wait.

Holland Tab

version 2
version 2

Whole song

4,597 views 6 this week
1 commentread comment
1 2 3 4 5
3 more votes to show rating
add to favorites
launch autoscroll
font size
0
reset
how to read this tab
guitar tuner
Autoscroll
slow
fast
+/-
esc
set tempo
stop
Help us to improve Ultimate-Guitar.com Take our survey!
×
Capo
6th fret
Not great at tabbing, but if played to the right rhythm, these are darn close.  This is 
an ammendment to the other "Holland" tab, which was pretty good.  With these bass notes, 
song should sound closer to the recording.

Standard, Capo on 6th
chords (intro/verse progression)
e-----------------0------|
b--3----3----3---------0-|
g--2---------2----2----2-|
d--2--------------2----2-|
a--0----2--------------3-|
e------------2-----------|


Intro/verse
e---------------------------------0----0----------------------|
b------3----------3------------3-----------0---0--------------|
g--2-------0---------0-----2------2-----(2)------------2---1--|
d----2----------0--------0--------2--2-------2------2---2-----|
a--0-----0----2-----2----------------------3-----3------------|
e----------------------2-----(2)--------------------0---------|

chorus
e-----------------------------0-------------------------------------------|
b------3-----------------3----------------3-------------------------------|
g--2--------2---0---2--------2----0--2---------2--0-----------------------|
d----2--------0------------0------------2--------2-------------------0----|
a--0------0-2-----2----0--------0----0------0--0----(0)-----------0h2-----|
e--------------------2--------0-------------------------0---0-0-0------0--|
Suggest correction
Give kudos to tab author, rate the tab!
1 2 3 4 5
comments
print report bad tab
1 comment total.
0 reply
nBode 84 Jan 04, 2009 10:06 PM

This sounds really good, but I don't think it's what Sufjan is playing. Especially the chorus part. Yours seems too long, or maybe I'm just playing it wrong. But I know it's not how Sufjan plays it. His is much different.

That being said, this is still a beautiful, beautiful tab. It sounds gorgeous as long as you don't play along. Great work. That was a long comment, sorry...

guest
You may want to rate the tab now too:
select rating
Wanna post a correction for this tab? Suggest correction