Oops, an error
Loading. Please wait.

Holy Holy Holy Chords

version 2
version 2

Whole song

8,210 views 6 this week
no commentswrite comment
1 2 3 4 5
3 more votes to show rating
add to favorites
launch autoscroll
font size
0
reset
transpose
0
reset
simplify chords
display chords
guitar tuner
×
Best way to learn
"Holy Holy Holy"
Autoscroll
slow
fast
+/-
esc
set tempo
stop
Author
Difficulty
Capo
  follow
intermediate
2nd fret
Holy, Holy, Holy
Sufjan Stevens

    Pretty easy chord pattern, but listen to the song to figure out the picking. I'm
not sure if this is 100% correct, but it's hard to hear the guitar sometimes and I
went off of the piano mostly. Beautiful song. Listen to the song and play along;
there are some variations with the chords. Any corrections would be greatly
appreciated.

Capo: 2

Intro:

   C Am7 Em7                             C Am7 Em7

e|-3--3-------|                       e|-3--0-------|
B|-1--1--3----|                       B|-1--1--3----|
G|-0--0--0----|      or sometimes     G|-0--0--0----|  
D|-2--2--2----|                       D|-2--2--2----|
A|-3--0--2----|                       A|-3--0--2----|
E|-x--x--0----|                       E|-x--x--0----|


Verse:

"Holy, holy, holy!"  "Lord God Almighty!"   "Early in the morning..."

   C Am7 Em7         F C G                  C B/Em Am7 Em7

e|-0--0--0---------|-0--0--3--------------|-0--x--0--0----|
B|-1--1--1---------|-1--1--0--------------|-1--1--1--1----|
G|-0--0--0---------|-2--0--0--------------|-0--0--0--0----|
D|-2--2--2---------|-3--2--0--------------|-2--0--2--2----|
A|-3--0--2---------|-3--3--2--------------|-3--2--0--2----|
E|-x--x--0---------|-1--x--3--------------|-x--x--x--0----|


"...our song shall rise to Thee"

   F  G  Am7 G

e|-0--3--0--1----|
B|-1--0--1--0----|
G|-2--0--0--0----|
D|-3--0--2--0----|
A|-3--2--0--2----|
E|-1--3--x--3----|


Altered Verse:

"God in three Persons..." "...God in three Persons..."  "...blessèd Trinity!"

   F  G  Am7 G               F  G Am7 Em                 F  G

e|-0--3--0--3-------------|-0--7--0--------------------|-0--3----------------|
B|-1--0--1--0-------------|-1--0--1--1-----------------|-1--0----------------|
G|-2--0--0--0-------------|-2--0--0--0-----------------|-2--0----------------|
D|-3--0--2--0-------------|-3--0--2--2-----------------|-3--0----------------|
A|-3--2--0--2-------------|-3--x--0--2-----------------|-3--2----------------|
E|-1--3--x--3-------------|-1--3--x--0-----------------|-1--3----------------|

(Play Intro 2x), Repeat.





“Holy, Holy, Holy is the Lord God Almighty, who was, and is, and is to come.” Revelation 4:8
Suggest correction
Give kudos to tab author, rate the tab!
1 2 3 4 5
comments
print report bad tab
guest
You may want to rate the tab now too:
select rating
Wanna post a correction for this tab? Suggest correction