Oops, an error
Loading. Please wait.

John Wayne Gacy Jr Tab

version 2
version 2

Whole song

Interactive

71,926 views 96 this week
24 commentsread comments
1 2 3 4 5
x 47
add to favorites
launch autoscroll
font size
0
reset
how to read this tab
guitar tuner
Autoscroll
slow
fast
+/-
esc
set tempo
stop
Help us to improve Ultimate-Guitar.com Take our survey!
×
Author
Tuning
Capo
E A D G B E
3rd fret
Tabbed by: Ryan Sommers
E-mail: ryansommers@gmail.com



This entire song is one finger-picked progression with discretionary variances:

   Dm                              Cadd9
e|-----------1---------------1-------------------------------------|
B|-------3-------3-------3-------3-------3-------3-------3-------1-|
G|---2---------------2---------------0-------0-------0-------0-----|
D|-0---0---0---0---0---0---0---0-------2-------2-------2-------2---|
A|---------------------------------3-------3-------3-------3-------|
E|-----------------------------------------------------------------|

   Am                              F
e|-----------------------------------------------------------------|
B|-------1-------1-------1-------1-------1-------1-------1-------1-|
G|---2-------2-------2-------2-------2-------2-------2-------2-----|
D|-----2-------2-------2-------2-----------------------------------|
A|-0-------0-------0-------0---------------------------------------|
E|---------------------------------1---1---1---1---1---1---1---1---|


As the song progresses, Sufjan throws in the open high E string as he pleases on the Cadd9, Am, and F chords:

   Dm                              Cadd9
e|-----------1---------------1-----------------------0-------------|
B|-------3-------3-------3-------3-------3-------3-------3-------1-|
G|---2---------------2---------------0-------0---------------0-----|
D|-0---0---0---0---0---0---0---0-------2-------2-------2-------2---|
A|---------------------------------3-------3-------3-------3-------|
E|-----------------------------------------------------------------|

   Am                              F
e|-------------------0-----------------------0---------------0-----|
B|-------1-------1-------1-------1-------1-------1-------1-------1-|
G|---2-------2---------------2-------2---------------2-------------|
D|-----2-------2-------2-------2-----------------------------------|
A|-0-------0-------0-------0---------------------------------------|
E|---------------------------------1---1---1---1---1---1---1---1---|


That's how he includes it most of the time, but he varies it up a lot, especially as the song builds.
Suggest correction
comments
print report bad tab
24 comments total. Showing first comments.
+2 reply
Haleth 72 Oct 01, 2005 01:15 AM

just a small tiny eincy correction..... only one note off.


e|-----1-------1--------------------------------------------------|
B|---3---3---3---3---3---3---3---1---1---1---1---1---1---1---1---1|
G|-2-------2-------0---0---0---0---2---2---2---2---2---2---2---2--|
D|0-0-0-0-0-0-0-0---2---2---2---2---2---2---2---2-----------------|
A|----------------3---3---3---2---0---0---0---0-------------------|
E|------------------------------------------------1-1-1-1-1-1-1-1-|

0 reply
Nessy87 122 Nov 15, 2005 03:38 PM

Excellent work !

0 reply
GreatOne 10 Nov 26, 2005 11:44 AM

lovely song thanks for the tab!

guest
You may want to rate the tab now too:
select rating
Wanna post a correction for this tab? Suggest correction