Oops, an error
Loading. Please wait.

Wolverine Tab

2,345 views 1 this week
1 commentread comment
1 2 3 4 5
x 4
add to favorites
launch autoscroll
font size
0
reset
how to read this tab
guitar tuner
×
Best way to learn
"Wolverine"
Autoscroll
slow
fast
+/-
esc
set tempo
stop
Author
Difficulty
Capo
novice
5th fret
Capo 5th-Standard Tuning

e|-------0---------|
B|---------0-------|
G|-----0-----0-----|x4
D|---3-------------|
A|-5---------------|
E|-----------------|



e|-------0---------|
B|---------3-------|
G|-----0---0-------|x4
D|---2-------------|
A|-3---------------|
E|-----------------|
Suggest correction
comments
print report bad tab
1 comment total.
0 reply
TomVZ 10 Dec 26, 2015 11:29 PM

Capo 5

E ----0--------0---
B ---1-1------1-1--
G -----------------
D --3---3----------
A -5--------3------
E -----------3---3-

Bit easier to play if you replace the low E (E:3) with the open note at G (G:0).

guest
You may want to rate the tab now too:
select rating
Wanna post a correction for this tab? Suggest correction