Oops, an error
Loading. Please wait.

Love Scream Party bass

by SuG
3,900 views 1 this week
no commentswrite comment
1 2 3 4 5
2 more votes to show rating
add to favorites
×
Save as Personal and add changes to this tab that will be seen only by you. Learn more ›
×
You can save this tab as Personal to edit and correct it or add notes. All changes will be seen only by you. Learn more »
launch autoscroll
font size
0
reset
guitar tuner
edit
Autoscroll
slow
fast
+/-
esc
set tempo
stop
Difficulty
The bass solo of Love Scream Party from the Japanse band SuG. It's soo much fun to 
play! Listen the song for the rhythm.
Bassist: Chiyu
Tabber: GreekGeek2 
Tuning: Standard

Questions? Errors? Mail me!
the_pianist93 at hotmail.com

Legend: 
/ = slide
h = hammer-on
p = pull-off (in TAB)
s = slap
p = pop (above staff)

  s  p ps  ps p     s  p ps p          p  s  p ps  ps p    
G|------------2/-7-|--------2h4p2h4p2h4--|------------2/-7-|
D|---4-4---4-------|---4-4-------------4-|---4-4---4-------|
A|-----------------|---------------------|-----------------|
E|2-----2---2------|2-----2--------------|2-----2---2------|

  s  p ps   p       s  p ps  ps p     s  p ps p          p  
G|-----------------|------------2/-7-|--------2h4p2h4p2h4--|
D|---4-4----12/--11|---4-4---4-------|---4-4-------------4-|
A|----------12/--11|-----------------|---------------------|
E|2-----2----------|2-----2---2------|2-----2--------------|

  s  p ps  ps p          s
G|------------2/-7-|----------------|
D|---4-4---4-------|----------------|
A|-----------------|----------------|
E|2-----2---2------|-----0---2------|

            
            
Suggest correction
Creating personal tab
Creating personal tab
You can edit any tab online and save it as your Personal.

You can edit, replace or remove any tab part or add personal notes – all changes will be seen only by you.

Personal tabs can be accessed anytime from any device, even offline.
Learn more »
Give kudos to tab author, rate the tab!
1 2 3 4 5
comments
print report bad tab
guest
Wanna post a correction for this tab? Suggest correction