Oops, an error
Loading. Please wait.

Answer The Phone tab

version 5
version 5

Whole song

Interactive

561 views 1 this week
no commentswrite comment
1 2 3 4 5
3 more votes to show rating
add to favorites
×
Save as Personal and add changes to this tab that will be seen only by you. Learn more ›
×
You can save this tab as Personal to edit and correct it or add notes. All changes will be seen only by you. Learn more »
launch autoscroll
font size
0
reset
how to read this tab
guitar tuner
edit
Autoscroll
slow
fast
+/-
esc
set tempo
stop
Answer the Phone by Sugar Ray
Off their self-titled album Sugar Ray
The Tuning is HALF-STEP DOWN!!!!

2 GUITARS

... = Palm Mute

/ = Pick Slide Down

\ = Pick Slide Up

~ = Let Ring

Intro Part 1 Guitar 1(Clean) Play once *Note-there are many ways to play the intro this 
the way I play it
eb-------------------------------------------|
Bb-------------------------------------------|
Gb-----9---9----9---9----9---9----9---9------|
Db----7-7-7-7--7-7-7-7--7-7-7-7--7-7-7-7-----|
Ab------------7--------9--------5------------|
Eb---5---------------------------------------|

Intro Part 2 Guitar 2(Dist.) Play x2
eb-------------------------------------------|
Bb-------------------------------------------|
Gb-------9-----11-----7----------------------|
Db-7-----9-x16-11-x16-7-x16------------------|
Ab-7-x16-7------9-----5----------------------|
Eb-5-----------------------------------------|

Intro Part 2 Guitar 1(Dist.) Starts playing when Guitar 2 begins Intro Part 2 second 
Play Once
eb-------------------------------------------|
Bb-------------------------------------------|
Gb-------------------7-----------------------|
Db-7-----2-----4-----7-x16-------------------|
Ab-7-x16-2-x16-4-x16-5-----------------------|
Eb-5-----0-----2-----------------------------|

Verse 1 Part 1 Just Bass (Im gonna give you the bass part)
eb--------------------------------------------|
Bb--------------------------------------------|
Gb--------------------------------------------|
Db-7-x16--------------------------------------|
Ab-------7-x16-9-x16-10-9---------------------|
Eb-----------------------10-10-10-10----------|

Verse 1 Part 2 Both Guitars (Dist.) Play Once
eb---------------------------------------------------------------------|
Bb---------------------------------------------------------------------|
Gb---------------------12-12-12-12-12-12-12-12-12-12-12-12-12-12-12-12-|
Db-7-------------------12-12-12-12-12-12-12-12-12-12-12-12-12-12-12-12-|
Ab-7-------7-x16-9-x16-10-10-10-10-10-10-10-10-10-10-10-10-10-10-10-10-|
Eb-5-5-x16-------------------------------------------------------------|
     .     .     .      .  .  .  .

Chorus 1 Both Guitars Play Twice
eb-------------------------------------------|
Bb-------------------------------------------|
Gb-------9-----11-----7----------------------|
Db-7-----9-x16-11-x16-7-x16------------------|
Ab-7-x16-7------9-----5----------------------|
Eb-5-----------------------------------------|

Verse 2 Part 1 (Same as Verse 1 Part 1) *Note-Still just bass for Part 1

Verse 2 Part 2 (Same as Verse 1 Part 1)

Chorus 2 (Same as Chorus 1)

Bridge Part 1 Guitar 1 (Clean) Play Three Times
eb-------------------------------------------|
Bb-------------------------------------------|
Gb---7----9-----11-----9---------------------|
Db--7-7--9-9--11--11--9-9--------------------|
Ab-5----7----9-------7-----------------------|
Eb-------------------------------------------|

Bridge Part 1 Guitar 2 (Dist.) *Note-This is optional THIS IS NOT IN THE SUGAR RAY 
You do not have to play this if you don't wont to Play Three Times
eb-------------------------------------------|
Bb-------------------------------------------|
Gb-------------------------------------------|
Db-7----9----11----9-------------------------|
Ab-5-x8-7-x8--9-x8-7-x8----------------------|
Eb-------------------------------------------|
   .    .     .    .

Bridge Part 2 Guitar 1 (Clean) Play Once
eb-------------------------------------------|
Bb-------------------------------------------|
Gb-----9---9----9---9----9---9----9----------|
Db----7-7-7-7--7-7-7-7--7-7-7-7--7-7---------|
Ab------------7--------9--------5------------|
Eb---5---------------------------------------|

Bridge 3 Both Guitars (Dist.) *Note-Guitar 2 Does Pick slide while Guitar 1 turns up to Dist.
eb-------------------------------------------|
Bb-------------------------------------------|
Gb-------------------------------------------|
Db--------------7-----2-----4-----5----------|
Ab--------------7-x16-2-x16-4-x16-5-x16------|
Eb-////\\\\\\\\-5-----0-----2-----3----------|

Chorus 3 Both Guitar (Dist.) Play THREE Times instead of two times
eb-------------------------------------------|
Bb-------------------------------------------|
Gb-------9-----11-----7----------------------|
Db-7-----9-x16-11-x16-7-x16------------------|
Ab-7-x16-7------9-----5----------------------|
Eb-5-----------------------------------------|

End Both Guitars end On This Chord
eb-----
Bb-----
Gb-----
Db-7~--
Ab-7~--
Eb-5~--
Suggest correction
Creating personal tab
Creating personal tab
You can edit any tab online and save it as your Personal.

You can edit, replace or remove any tab part or add personal notes – all changes will be seen only by you.

Personal tabs can be accessed anytime from any device, even offline.
Learn more »
Give kudos to tab author, rate the tab!
1 2 3 4 5
comments
print report bad tab
guest
Wanna post a correction for this tab? Suggest correction