Oops, an error
Loading. Please wait.
We have an official Every Morning tab made by UG professional guitarists. Check out the tab »
×
20,384 views 54 this week
1 commentread comment
1 2 3 4 5
x 16
add to favorites
×
Save as Personal and add changes to this tab that will be seen only by you. Learn more ›
×
You can save this tab as Personal to edit and correct it or add notes. All changes will be seen only by you. Learn more »
launch autoscroll
font size
0
reset
how to read this tab
guitar tuner
edit
Autoscroll
slow
fast
+/-
esc
set tempo
stop
Author
Difficulty
This song has 2 guitars in it, but one just keeps playing the same chord progression
over and over again except for the bridge.

The chords for the Guitar 2 are:
 
G# - 466544
Eb - x68886
C# - x46664

 
For Guitar 1 I'm just going to tab out the parts because there's only 3.
The rest of the song it just plays the chord progression with Guitar 2.
I'll leave you to figure out the order.
 

[Part 1]:
e|--------------------------------------------------|
B|--------------------------------------------------|
G|-6/8-8-10-8-10-8-----6-8-6-8-6-----5-6-5----------|
D|-6/8-8-8--8-8--8-----6-6-6-6-6-----5-5-6----------|
A|--------------------------------------------------|
E|--------------------------------------------------|

e|--------------------------------------------------|
B|-2/4-4-4-4-----4h6----4p2/1-----------------------|
G|-3/5-5-5-5-----5----------------------------------|
D|--------------------------------------------------|
A|--------------------------------------------------|
E|--------------------------------------------------|
 

[Part 2]:
e|--11-----11-10-9-----9-10-11-----11-10-9----------|
B|--11-----11-10-9-----9-10-11-----11-10-9----------|
G|--------------------------------------------------|            *Repeat as needed
D|--------------------------------------------------|
A|--------------------------------------------------|
E|--------------------------------------------------|




[Bridge]: Played by both guitars.
It's all palm muted except for when you hit the first note of each chord.

The Chords are:

C# - x4664x
Eb - x68886x
G# - 4665xx
Fm - 1331xx
 

That is all.
Suggest correction
Creating personal tab
Creating personal tab
You can edit any tab online and save it as your Personal.

You can edit, replace or remove any tab part or add personal notes – all changes will be seen only by you.

Personal tabs can be accessed anytime from any device, even offline.
Learn more »
comments
print report bad tab
1 comment total.
+1 reply
brettcadamson 2,984 Sep 26, 2015 01:20 AM

This sounds great thank you! When I tried it against the recording I thought one note might be different. See what you think:

*
e|--------------------------------------------------|
B|--------------------------------------------------|
G|-6/8-8-10-8-10-8-----6-8-6-8-6-----5-6-5----------|
D|-6/8-8-8--8-8--8-----6-6-6-6-6-----5-6-6----------|
A|--------------------------------------------------|
E|--------------------------------------------------|

guest
You may want to rate the tab now too:
select rating
Wanna post a correction for this tab? Suggest correction