Oops, an error
Loading. Please wait.

Bouncing Off The Walls tab

version 3
version 3

Whole song

Interactive

534 views 1 this week
no commentswrite comment
1 2 3 4 5
3 more votes to show rating
add to favorites
×
Save as Personal and add changes to this tab that will be seen only by you. Learn more ›
×
You can save this tab as Personal to edit and correct it or add notes. All changes will be seen only by you. Learn more »
launch autoscroll
font size
0
reset
how to read this tab
guitar tuner
edit
Autoscroll
slow
fast
+/-
esc
set tempo
stop
Author
Difficulty
-------------------------------------------------------------------------------
                             Bouncing Off The Walls - Sugarcult
-------------------------------------------------------------------------------
Tabbed by: MidRiff

Tuning: Standard

Here's the way that I play Bouncing Off The Walls by Sugarcult. It isn't exactly like 
original song, but it sounds pretty decent and can be played in standard tuning.


The second part of the solo is just an example of what notes to use really. Just make 
up along those lines and do some fast picking on the notes instead of one on each note 
I've shown.


 Verse:
e|-------------------|
B|-------------------|
G|-------6-6-4-4-4-4-| x4 on the first refrain
D|--4-4--6-6-4-4-4-4-|
A|--4-4--4-4-2-2-2-2-|
E|--2-2--------------|

 Chorus:
e|--------------------------------                ------------------------|
B|--------------------------------                ------------------------|
G|--------4-4--4--6---3-----------                --------4-4--4--6-6-6-6-|
D|-1-1--1-4-4--4--6-6-3-4---------on the 4th time:-1-1--1-4-4--4--6-6-6-6-|
A|-1-1--1-2-2--2--4-6-1-4---------                -1-1--1-2-2--2--4-4-4-4-|
E|------------------4---2---------                ------------------------|


 Solo:
e|--6--6--7-(x12)-STOP------6---9-(x12)--6--6--------------9~----|
B|---7--7---------------7-7---7-----------7--7-6-7-9-7-6-8-------|
G|---------------------------------------------------------------|
D|---------------------------------------------------------------|
A|---------------------------------------------------------------|
E|---------------------------------------------------------------|


e|-11-(x16)-14-16-14h16p14-11--16-14-11-14----11-----------------------------------|
B|-----------------------------------------14----14-11--14-14-14-11-13-13b-11------|
G|---------------------------------------------------------------------------------|
D|---------------------------------------------------------------------------------|
A|---------------------------------------------------------------------------------|
E|---------------------------------------------------------------------------------|

 Bridge:
e|---6-------------|
B|-------6---------|
G|------------6----|
D|-----------------| Not really sure about this, it sounds ok though.
A|-----------------|
E|-----------------|

Verse x2
Chorus
Verse
Chorus
Solo
Bridge
Verse - all moved up two frets
Verse (5 times instead of the usual 4)
Suggest correction
Creating personal tab
Creating personal tab
You can edit any tab online and save it as your Personal.

You can edit, replace or remove any tab part or add personal notes – all changes will be seen only by you.

Personal tabs can be accessed anytime from any device, even offline.
Learn more »
Give kudos to tab author, rate the tab!
1 2 3 4 5
comments
print report bad tab
guest
You may want to rate the tab now too:
select rating
Wanna post a correction for this tab? Suggest correction