Oops, an error
Loading. Please wait.

Bouncing Off The Walls tab

version 5
version 5

Whole song

Interactive

343 views 12 this week
1 commentread comment
1 2 3 4 5
x 4
add to favorites
×
Save as Personal and add changes to this tab that will be seen only by you. Learn more ›
×
You can save this tab as Personal to edit and correct it or add notes. All changes will be seen only by you. Learn more »
launch autoscroll
font size
0
reset
how to read this tab
guitar tuner
edit
Autoscroll
slow
fast
+/-
esc
set tempo
stop
Author
Difficulty
intermediate
I apologize sincerely for the solo work. I got the first two thirds of it to a very good level, but the last
third of the solo is too fast for me to tab out. Hope that doesn't diminish the value of the tab. Pretty nice
and short song with lead and rhythm guitar switching roles throughout. Notes in parentheses are simply to not
confuse one note with another, for example two 1s versus an 11.

Intro: e|--------------------|
       B|--------------------|
       G|------6-66-4-4-4-44-| X4
       D|-4-44-6-66-4-4-4-44-|
       A|-4-44-4-44-2-2-2-22-|
       E|-2-22---------------|

          I'm bouncing off the walls again (whoa oh).

          I'm looking like a fool again (whoa oh).

          I threw away my reputation.

          One more song for the RADIO STATION!

Verse: e|--------------------|
       B|--------------------|
       G|------6-66-4-4-4-44-| X4
       D|-4-44-6-66-4-4-4-44-|
       A|-4-44-4-44-2-2-2-22-|
       E|-2-22---------------|

          I'm bouncing off the walls again (whoa oh).

          I'm looking like a fool again (whoa oh).

          Waking up on the bathroom floor.

          Pull myself back together just to fall once more.

Chorus: e|-------------------|
        B|-------------------|
        G|-8-88-4-44-6-4-6---| X3
        D|-8-88-4-44-6-4-6-8-|
        A|-6-66-2-22-4-2-4-8-|
        E|-----------------6-|

           And my heart's beating out of my chest (whoa oh)

           And this town is still making me sick (whoa oh)

           And every penny from my last paycheck

        e|---------------|
        B|---------------|
        G|-4~-6-6-6-66-6-|
        D|-4~-6-6-6-66-6-|
        A|-2~-4-4-4-44-4-|
        E|---------------|

           I've blown it on you

Verse: e|--------------------|
       B|--------------------|
       G|------6-66-4-4-4-44-| X4
       D|-4-44-6-66-4-4-4-44-|
       A|-4-44-4-44-2-2-2-22-|
       E|-2-22---------------|

          I'm bouncing off the walls again (whoa oh)

          And I'm looking like a fool again (whoa oh)

          So go ahead and take a picture

          And hang it up so you can tear me down

Chorus: e|-------------------|
        B|-------------------|
        G|-8-88-4-44-6-4-6---| X3
        D|-8-88-4-44-6-4-6-8-|
        A|-6-66-2-22-4-2-4-8-|
        E|-----------------6-|

           I don't care

           Cause I'm still here

           And I've got nothing left to lose

        e|------------|
        B|------------|
        G|----4-4-6-6-|
        D|-8~-4-4-6-6-|
        A|-8~-2-2-4-4-|
        E|-6~---------|

           With all the years that I wasted on you!

Solo: e|-6-2-6-2-77777777777777~-x-22-6-2-99999999999999-6-2-6-22-1-2-4-2-1-1111-2-2222-9-99999999-|
      B|-------------------------------------------------------------------------------------------|
      G|-------------------------------------------------------------------------------------------|
      D|-------------------------------------------------------------------------------------------|
      A|-------------------------------------------------------------------------------------------|
      E|-------------------------------------------------------------------------------------------|

      e|(11)9(11)9(11)9(11)9(11)9(11)9(11)9(11)9(11)9(11)9(11)9(11)9(11)9(11)9(11)9(11)9-(14~)-(14)(11)9(11)-|
      B|-----------------------------------------------------------------------------------------------------|
      G|-----------------------------------------------------------------------------------------------------|
      D|-----------------------------------------------------------------------------------------------------|
      A|-----------------------------------------------------------------------------------------------------|
      E|-----------------------------------------------------------------------------------------------------|

      e|-(11)9--------------9--------------------------------------|
      B|------(11)9----9(11)-----------------------------9-976~-4~-|
      G|-----------(11)------8-68-68-68-68-68-68-68-68-6-----------|
      D|-----------------------------------------------------------|
      A|-----------------------------------------------------------|
      E|-----------------------------------------------------------|

Bridge:    |----P.M.-----|
        e|-----------------|
        B|-----------------|
        G|-----8-----4---6-| X4
        D|---8---8---4---6-|
        A|-6-------2---4---|
        E|-----------------|

           Momma and Daddy's got the best cocaine

           Ritalin's never gonna feel the same

           Twenty-four hours on an empty brain

           I got my finger on the trigger and you're in my way

Chorus: e|-------------------|
        B|-------------------|
        G|------8-88-6-6-6-6-| X4
        D|-6-66-8-88-6-6-6-6-|
        A|-6-66-6-66-4-4-4-4-|
        E|-4-44--------------|

           I'm bouncing off the walls again (whoa oh)

           And I'm looking like a fool again (whoa oh)

           I threw away my reputation

           One more song for the RADIO STATION!

Outro: e|--------------------|
       B|--------------------|
       G|------6-66-4-4-4-44-| X4
       D|-4-44-6-66-4-4-4-44-|
       A|-4-44-4-44-2-2-2-22-|
       E|-2-22---------------|

          I'm bouncing off the walls again (whoa oooooooh)

          And I'm looking like a fool again (whoa ooooooooh)

          I'm bouncing off the walls again (whoa oooooooooh)

          And I'm looking like a fool again (whoa ooooooooh)

       e|-------------|
       B|-------------|
       G|------6-66-4-|
       D|-4-44-6-66-4-|
       A|-4-44-4-44-2-|
       E|-2-22--------|

          I'm bouncing off the walls again

            
            
Suggest correction
Creating personal tab
Creating personal tab
You can edit any tab online and save it as your Personal.

You can edit, replace or remove any tab part or add personal notes – all changes will be seen only by you.

Personal tabs can be accessed anytime from any device, even offline.
Learn more »
comments
print report bad tab
1 comment total.
0 reply
the_tabber_b 10 Jan 23, 2016 06:01 PM

didn't like this contribution

guest
You may want to rate the tab now too:
select rating
Wanna post a correction for this tab? Suggest correction