Oops, an error
Loading. Please wait.

Counting Stars Tab

version 1
version 1

Intro

Whole song

Interactive

6,080 views 9 this week
4 commentsread comments
1 2 3 4 5
x 7
add to favorites
launch autoscroll
font size
0
reset
how to read this tab
guitar tuner
×
Best way to learn
"Counting Stars"
Autoscroll
slow
fast
+/-
esc
set tempo
stop
Tuning Eb
                                                                     |
Key
[ (#) optional
Intro and verse 1:
    1 & 2 & 3 & 4 &|1 & 2 & 3   & 4 &|1 & 2 & 3  &|1 & 2 & 3 &
eb||---------------|-----------------|------------|-----------|
Bb||--------3------|-------(0)-------|-------(0)--|-----------|
Gb||--------4------|--------4--------|--------4---|--------4--|
Db||----4-------4--|----4-------4----|----4-------|----4------|
Ab||2--------------|-----------------|------------|-----------|
Eb||---------------|3----------------|0-----------|2-3--------|

    1 & 2 & 3 & 4 &|1 & 2 & 3   & 4 &|1 & 2 & 3 & 4 &|
eb||---------------|-----------------|0~~~~~~~~~~~~~~|
Bb||--------3------|-------(0)-------|0~~~~~~~~~~~~~~|
Gb||--------4------|--------4--------|0~~~~~~~~~~~~~~|
Db||----4-------4--|----4------------|2~~~~~~~~~~~~~~|
Ab||0-2------------|-----------------|2~~~~~~~~~~~~~~|
Eb||---------------|3----------------|0~~~~~~~~~~~~~~|

Repeat for verse!

Enjoy
Suggest correction
comments
print report bad tab
4 comments total. Showing first comments.
0 reply
Rucksak19 10 Jan 17, 2005 07:00 PM

Great sound on an acoustic, I think it's perfect.

0 reply
E*N 10 Jan 18, 2005 07:00 PM

I think i have the chorus going something like (chordwise)
E--------------------------------------------
B--------------------------------------------
G----11------7-------9-----7-----------------
D-----x------x-------x-----x-----------------
A-----9------5-------7-----5-----------------
E--------------------------------------------

I think we really need a full version on the site cos i need to play for a gig

0 reply
E*N 10 Jan 19, 2005 07:00 PM

gottit wrong
it's the second part to the first verse that's like that

guest
You may want to rate the tab now too:
select rating
Wanna post a correction for this tab? Suggest correction