Oops, an error
Loading. Please wait.

Daddys Little Defect tab

version 1
version 1

Whole song

2,876 views 1 this week
1 commentread comment
1 2 3 4 5
x 6
add to favorites
×
Save as Personal and add changes to this tab that will be seen only by you. Learn more ›
×
You can save this tab as Personal to edit and correct it or add notes. All changes will be seen only by you. Learn more »
launch autoscroll
font size
0
reset
how to read this tab
guitar tuner
edit
Autoscroll
slow
fast
+/-
esc
set tempo
stop
Author
Difficulty
Tabbed By: Mike

x = muted note
/ = slide up
\ = slide down
~ = let ring


Intro:

e----------------------------------------------------------|
B--444444444444444-----4444-----4444-----4444--------------|
G--------------------------------------------x6--6-x-------|
D-----------------x6--6----x6--6----x6--6----x6--6-x4--4-x-|
A-----------------x6--6----x6--6----x6--6----x4--4-x4--4-x-|
E-----------------x4--4----x4--4----x4--4-----------2--2-x-|

e-----------------------------------------|
B-----4444-----4444-----4444--------------|
G---------------------------x6--6-x-------|
D-6--6----x6--6----x6--6----x6--6-x4--4-x-|
A-6--6----x6--6----x6--6----x4--4-x4--4-x-|
E-4--4----x4--4----x4--4-----------2--2-x-|

  Verse 1:
e-----------------------------------------|
B-----------------------------------------| x2
G---------------------------x6--6-x-------|
D-6--6----x6--6----x6--6----x6--6-x4--4-x-|
A-6--6----x6--6----x6--6----x4--4-x4--4-x-|
E-4--4----x4--4----x4--4-----------2--2-x-|
  then - strum each chord as needed
e--------------------------------------------------------|
B--------------------------------------------------------|
G--------6-----------6-------------6---------------------|
D--6-----6-----6-----6--4----6-----6-----6-------2--xxxx-|
A--6-----4-----6-----4--4----6-----4-----6-------2--xxxx-|
E--4-----------4--------2----4-----------4-------0--xxxx-|

  Chorus:  strum each chord as needed
e---------------------------------------|
B---------------------------------------|
G-------6---------6---------6-----------|
D--6----6----6----6----6----6----2----4-|
A--6----4----6----4----6----4----2----4-|
E--4---------4---------4---------0----2-|

after chorus play this again
e-----------------------------------------|
B-----4444-----4444-----4444--------------|
G---------------------------x6--6-x-------|
D-6--6----x6--6----x6--6----x6--6-x4--4-x-|
A-6--6----x6--6----x6--6----x4--4-x4--4-x-|
E-4--4----x4--4----x4--4-----------2--2-x-|

Verse 2:

e-----------------------------------------|
B-----------------------------------------| x2
G---------------------------x6--6-x-------|
D-6--6----x6--6----x6--6----x6--6-x4--4-x-|
A-6--6----x6--6----x6--6----x4--4-x4--4-x-|
E-4--4----x4--4----x4--4-----------2--2-x-|
  then - strum each chord as needed
e-------------------------------------------------------|
B-------------------------------------------------------|
G--------6-----------6-------------6--------------------|
D--6-----6-----6-----6--4----6-----6-----6-------2----4-|
A--6-----4-----6-----4--4----6-----4-----6-------2----4-|
E--4-----------4--------2----4-----------4-------0----2-|
   behind this second part the lead just strums this constantly
e---4...-
B---4...-
G--------|
D--------|
A--------|
E--------|

  Chorus 2:  strum each chord as needed
e------------------------------------|
B------------------------------------| x2
G-------6---------6---------6----8---|
D--6----6----6----6----6----6----8---|
A--6----4----6----4----6----4----6---|
E--4---------4---------4-------------|

   Bridge:
e--------------------|
B---9~----8-\4-/6-4~-|
G---x-------------x--|
D---6~------------6~-|
A--------------------|
E--------------------|
 then  ( make sure u get the palm multing rite )
e-------------------|
B--9998889998889988-| x4
G--8888888888888888-|
D-------------------|
A-------------------|
E-------------------|
pm  .. .. .. .. . .

e-------------------------------------------------------------------|
B--xx99xx99------------------------xx99xx99-------------------------|
G--xxxxxxxxxx66xx66xx55xx55xx88xx88xxxxxxxxxx66xx6688888888888x-----|
D--xx66xx66xxxxxxxxxxxxxxxxxxxxxxxxxx66xx66xxxxxxxxxxxxxxxxxxxx4--4-|
A----------xx44xx44xx33xx33xx66xx66--------xx44xx4466666666666x4--4-|
E--------------------------------------------------------------2--2-|

 last verse
e-----------------------------------------|
B-----------------------------------------|
G---------------------------x6--6-x-------|
D-6--6----x6--6----x6--6----x6--6-x4--4-x-|
A-6--6----x6--6----x6--6----x4--4-x4--4-x-|
E-4--4----x4--4----x4--4-----------2--2-x-|

e----------------------------------------------------------------|
B----------------------------------------------------------------|
G----------------------------------------------------------------|
D-6--6----x6--6-----6--6-----222222222222222244444444------------|
A-6--6----x6--6-----6--6-----222222222222222244444444*pickslide*-|
E-4--4----x4--4-----4--4-----000000000000000022222222------------|

 Final Chorus  - strum each chord as needed
e----------------------------------|
B----------------------------------| x2
G--4---------4---------4-----------|
D--4----2----4----2----4----2----4-|
A--2----2----2----2----2----2----4-|
E-------0---------0---------0----2-|

e----------------------------------|
B----------------------------------|
G--4---------4---------4-----------|
D--4----2----4----4----4----2----4-|
A--2----2----2----4----2----2----4-|
E-------0---------2---------0----2-|

e----------------------------------|
B----------------------------------|
G--4----9----4---------4-----------|
D--4----9----4----4----4----2----4-|
A--2----7----2----4----2----2----4-|
E-----------------2---------0----2-|

lead - plays this only during the last 2 bars of the above

e------------------------------------------------------------------|
B--7--5--4-5--4-5-7--5--4-5--4--0-7--5--4-5--4-5--7777777777777777-|
G------------------------------------------------------------------|
D------------------------------------------------------------------|
A------------------------------------------------------------------|
E------------------------------------------------------------------|

e----------------------------------------------------------------------------------|
B--7--5--4-5--4-5-7--5--4-5--4--0-7--5--4------------------------------------------|
G-----------------------------------------9999999911111111111111111111111111111111-|
D-----------------------------------------xxxxxxxx-x-x-x-x-x-x-x-x-x-x-x-x-x-x-x-x-|
A-----------------------------------------77777777-9-9-9-9-9-9-9-9-9-9-9-9-9-9-9-9-|
E----------------------------------------------------------------------------------|

Ending:
       rhythm
e------------------------------------------------------|
B------------------------------------------------------|
G------------------------------------------------------|
D--2222222222222222444444444---------------------6-6-\-|
A--2222222222222222444444444---------------------6-6-\-|
E--0000000000000000222222222---------------------4-4-\-|
       lead
e------------------------------------------------------|
B-----------------------------------------444444-------|
G--9999999999999999111111111111111111------------------|
D--xxxxxxxxxxxxxxxx-x-x-x-x-x-x-x-x-x-----------x6-6-\-|
A--7777777777777777-9-9-9-9-9-9-9-9-9-----------x6-6-\-|
E-----------------------------------------------x4-4-\-|
pm ................

            
            
Suggest correction
Creating personal tab
Creating personal tab
You can edit any tab online and save it as your Personal.

You can edit, replace or remove any tab part or add personal notes – all changes will be seen only by you.

Personal tabs can be accessed anytime from any device, even offline.
Learn more »
comments
print report bad tab
1 comment total.
0 reply
keva_1 10 Oct 11, 2006 11:00 AM

great tab...

guest
You may want to rate the tab now too:
select rating
Wanna post a correction for this tab? Suggest correction