Oops, an error
Loading. Please wait.

Made A Mistake tab

307 views 1 this week
no commentswrite comment
1 2 3 4 5
2 more votes to show rating
add to favorites
×
Save as Personal and add changes to this tab that will be seen only by you. Learn more ›
×
You can save this tab as Personal to edit and correct it or add notes. All changes will be seen only by you. Learn more »
launch autoscroll
font size
0
reset
how to read this tab
guitar tuner
edit
Autoscroll
slow
fast
+/-
esc
set tempo
stop
Author
Difficulty
Hints
P.M. = Palm Mute
br   = Bend and Release
X    = Mute the X'ed String/Played how many times


Intro(Lead Guitar)
|----------------------------------------------------------------------------|
|--------6-6-6--8-8-8---------6-6-8-8---------6-6-6--5-5-5--6-6-6--5-5-------|
|-7-7-7----------------7-7-7-----------5-5-5---------------------------5-5---| 3x
|----------------------------------------------------------------------------|
|----------------------------------------------------------------------------|
|----------------------------------------------------------------------------|

 Rhythm
 P.M.===============================================================|
|-------------------------------------------------------------------|
|-------------------------------------------------------------------|
|--7-7-7-7-7-7-7-7-7-7-7-7-7-7-7-7-5-5-5-5-5-5-5-5------------------|3x
|--------------------------------------------------5-5-5-5-5-5-5-5--|
|-------------------------------------------------------------------|
|-------------------------------------------------------------------|

VERSE(Rhythm)
 P.M.===============================================================|
|----------------|----------------|-----------------|----------------|
|----------------|----------------|-----------------|----------------|
|-7-7-7-7-7-7-7-7|-7-7-7-7-7-7-7-7|-5-5-5-5-5-5-5-5-|5-5-5-5-5-5-5-5-|
|----------------|----------------|-----------------|----------------|
|----------------|----------------|-----------------|----------------|
|----------------|----------------|-----------------|----------------|

-|---------------|----------------|-----------------|-----------------|
-|---------------|----------------|-----------------|-----------------|
-|---------------|----------------|-5-5-5-5-5-5-5-5-|-5-5-5-5-5-5-5-5-| 1x
-|7-7-7-7-7-7-7-7|-7-7-7-7-7-7-7-7|-----------------|-----------------|
-|---------------|----------------|-----------------|-----------------|
-|---------------|----------------|-----------------|-----------------|

 P.M.=================================================================|
|----------------|----------------|-----------------|----------------|
|----------------|----------------|-----------------|----------------|
|-7-7-7-7-7-7-7-7|-7-7-7-7-7-7-7-7|-5-5-5-5-5-5-5-5-|5-5-5-5-5-5-5-5-|
|----------------|----------------|-----------------|----------------|
|----------------|----------------|-----------------|----------------|
|----------------|----------------|-----------------|----------------|

-|---------------|----------------|-----------------|------------------|
-|---------------|----------------|-----------------|------------------|
-|---------------|----------------|-----------------|------------------|1x
-|7-7-7-7-7-7-7-7|-7-7-7-7-7-7-7-7|-5-5-5-5-5-5-5-5-|-5-5-5-5-5-5-5-5--|
-|---------------|----------------|-----------------|------------------|
-|---------------|----------------|-----------------|------------------|


After 1x of Rhythm, Lead Guitar Comes in...

|--------|-------|--------|-----5-|-------|-------|-------|-------|
|---3---5~-------|---5---6~-------|--6----|-----8-|-------|-------|
|-2------|-------|-2------|-------|-------|-------|-------|-------|
|--------|-------|--------|-------|-------|-------|-------|-------|
|--------|-------|--------|-------|-------|-------|-------|-------|
|--------|-------|--------|-------|-------|-------|-------|-------|

Chorus

Rhythm
|---------------|---------------|---------------|---------------|
|---------------|---------------|---------------|---------------|
|-7-7-7-7-7-7-7-|---------------|-5-5-5-5-5-5-5-|---------------|
|-7-7-7-7-7-7-7-|-7-7-7-7-7-7-7-|-5-5-5-5-5-5-5-|-5-5-5-5-5-5-5-|2x
|-5-5-5-5-5-5-5-|-7-7-7-7-7-7-7-|-3-3-3-3-3-3-3-|-5-5-5-5-5-5-5-|
|---------------|-5-5-5-5-5-5-5-|---------------|-3-3-3-3-3-3-3-|

Lead                                            ?????
|---------------|---------------|---------------|-------------|
|---------------|---------------|---------------|-------------|
|-10------------|-9-------------|-12------------|-9(10)-------|play () on 2x
|-X-(8x)--------|-X-(8x)--------|--X-(8x)-------|-X(X)(8x)----|2x
|-8-------------|-7-------------|-10------------|-7(8)--------|
|---------------|---------------|---------------|-------------|

After Chorus play this lead again
 Lead
|----------------------------------------------------------------------------|
|--------6-6-6--8-8-8---------6-6-8-8---------6-6-6--5-5-5--6-6-6--5-5-------|
|-7-7-7----------------7-7-7-----------5-5-5---------------------------5-5---| 
|----------------------------------------------------------------------------|
|----------------------------------------------------------------------------|
|----------------------------------------------------------------------------|

With this Rhythm
|---------------|---------------|---------------|---------------|
|---------------|---------------|---------------|---------------|
|-7-7-7-7-7-7-7-|---------------|-5-5-5-5-5-5-5-|---------------|
|-7-7-7-7-7-7-7-|-7-7-7-7-7-7-7-|-5-5-5-5-5-5-5-|-5-5-5-5-5-5-5-|
|-5-5-5-5-5-5-5-|-7-7-7-7-7-7-7-|-3-3-3-3-3-3-3-|-5-5-5-5-5-5-5-|
|---------------|-5-5-5-5-5-5-5-|---------------|-3-3-3-3-3-3-3-|


  *Repeat Verse*
  *Repeat Chorus*

BRIDGE(I Can Only Say.....)

Lead                  br                       br
|-5----5----5----5----5----5----5----5----5---------|
|----------------------------------------------5----|
|-----7----7----7----7----7----7----7----7---7----5-|3x
|---------------------------------------------------|
|---------------------------------------------------|
|---------------------------------------------------|

Rhythm with BRIDGE
|------------|------------|------------|------------|
|------------|------------|------------|------------|
|-7--7--7--7-|------------|-5--5--5--5-|------------|
|-7--7--7--7-|-7--7--7--7-|-5--5--5--5-|-5--5--5--5-|
|-5--5--5--5-|-7--7--7--7-|-3--3--3--3-|-5--5--5--5-|
|------------|-5--5--5--5-|------------|-3--3--3--3-|


*Repeat Chorus*

SOLO
Lead                  br                       br
|-5----5----5----5----5----5----5----5----5---------|
|----------------------------------------------5----|
|-----7----7----7----7----7----7----7----7---7----5-|2x
|---------------------------------------------------|
|---------------------------------------------------|
|---------------------------------------------------|

Lead                       br                   br
|-5----5----10----5----5----5----5----5----5---------|
|-----------------------------------------------5----|
|-----7----7-----7----7----7----7----7----7---7----5-|2x
|----------------------------------------------------|
|----------------------------------------------------|
|----------------------------------------------------|

 P.M.===============================================================|
|-------------------------------------------------------------------|
|-------------------------------------------------------------------|
|--7-7-7-7-7-7-7-7-7-7-7-7-7-7-7-7-5-5-5-5-5-5-5-5------------------|4x
|--------------------------------------------------5-5-5-5-5-5-5-5--|
|-------------------------------------------------------------------|
|-------------------------------------------------------------------|


*Repeat Chorus*

OUTRO(I could Never......)

Lead                  br                       br
|-5----5----5----5----5----5----5----5----5---------|
|----------------------------------------------5----|
|-----7----7----7----7----7----7----7----7---7----5-|2x
|---------------------------------------------------|
|---------------------------------------------------|
|---------------------------------------------------|

Lead                       br                   br
|-5----5----10----5----5----5----5----5----5---------|
|-----------------------------------------------5----|
|-----7----7-----7----7----7----7----7----7---7----5-|2x
|----------------------------------------------------|
|----------------------------------------------------|
|----------------------------------------------------|

 Rhythm
|------------|------------|------------|------------|
|------------|------------|------------|------------|
|-7--7--7--7-|------------|-5--5--5--5-|------------|
|-7--7--7--7-|-7--7--7--7-|-5--5--5--5-|-5--5--5--5-|4x
|-5--5--5--5-|-7--7--7--7-|-3--3--3--3-|-5--5--5--5-|
|------------|-5--5--5--5-|------------|-3--3--3--3-|

__________________________________________________________________

Its almost accurate
Please point out the mistakes if you find any
and if it helped a little then please rate it.
Thanx :)

            
            
Suggest correction
Creating personal tab
Creating personal tab
You can edit any tab online and save it as your Personal.

You can edit, replace or remove any tab part or add personal notes – all changes will be seen only by you.

Personal tabs can be accessed anytime from any device, even offline.
Learn more »
Give kudos to tab author, rate the tab!
1 2 3 4 5
comments
print report bad tab
guest
You may want to rate the tab now too:
select rating
Wanna post a correction for this tab? Suggest correction