Oops, an error
Loading. Please wait.

Memory bass

version 2
version 2
9,358 views 15 this week
2 commentsread comments
1 2 3 4 5
x 16
add to favorites
×
Save as Personal and add changes to this tab that will be seen only by you. Learn more ›
×
You can save this tab as Personal to edit and correct it or add notes. All changes will be seen only by you. Learn more »
launch autoscroll
font size
0
reset
guitar tuner
edit
Autoscroll
slow
fast
+/-
esc
set tempo
stop
Author
After watching their live videos countless times, I can safely say that this is the 
and right way to play it.

"This May Never Start..."
No Bass

"Lost your sense of fear...."
G------------------------------------------------|
D------------------------------------------------|
A-4~-----------4/6~----------6/9~---------9\4~---|
E------------------------------------------------|


Chorus
"So get back, back, back to where we lasted...."
G------------------------------------------------|
D------------------------------------------------|x2
A-44444444---------------------------------------|
E----------22222223-66666666-44444444------------|


Bridge
G--------------|
D--------------|     x2
A-4------------|
E---44-2-22-22-|


2nd verse
"This may never start, I'll tear us apart...."
G------------------------------------------------|
D------------------------------------------------|
A-4~-----------4/6~----------6/9~---------9\4~---|
E------------------------------------------------|

"Losing Half A year..."
G-------------------------------------------------------------|
D-------------------------------------------------------------|
A-444444444444-6666666666666-999999999999-444444444444-44-4-4-|
E-------------------------------------------------------------|


Chorus
"So get back, back, back to where we lasted...."
G------------------------------------------------|
D------------------------------------------------|x2
A-44444444---------------------------------------|
E----------22222223-66666666-44444444------------|


Guitar Solo
G---------------------------------------------------|
D---------------------------------------------------|
A-444444-----------------444444---------------------|
E-------4442-2222222222--------4442-2222222222------|

G--------------------------------------------|
D--------------------------------------------|
A--------------------------------------------|
E-6666664442-2222222222--6666666666664442----|

G------------------------|
D------------------------|
A------------------------|
E-2-22-2--2-22-2--2-22-2-|


Drum solo  No Bass
"This May Never Start, Tearing Out My Heart"

"Lost Your Sense Of Fear"
G--------------------------------------------|
D--------------------------------------------|
A-444444444444-6666666666666-999999999999/4--|
E--------------------------------------------|


Chorus
"So get back, back, back to where we lasted...."
G------------------------------------------------|
D------------------------------------------------|x2
A-44444444---------------------------------------|
E----------22222223-66666666-44444444------------|


"This may never start, We Could Fall Apart,I'd be your memory."
G-----------------------------------------------------|
D-----------------------------------------------------|x2
A-44444444--------------------------------------------|
E---------44422222223-666666666-444444444-------------|


Bridge
G--------------|
D--------------|x4
A-4------------|
E---44-2-22-22-|


End On
G-------------|
D-------------|
A-4---12------|
E---4---------|

I hope that it helps some bassist out there play this song.
Thanks.

PS: Pls rate and comment on what you think of this tab.

            
            
Suggest correction
Creating personal tab
Creating personal tab
You can edit any tab online and save it as your Personal.

You can edit, replace or remove any tab part or add personal notes – all changes will be seen only by you.

Personal tabs can be accessed anytime from any device, even offline.
Learn more »
comments
print report bad tab
2 comments total.
+1 reply
silverstein17 10 Mar 16, 2010 02:42 PM

Nice tab, sounds awesome :)

0 reply
Mickylaheij 10 Jun 11, 2013 07:57 AM

I love this song and nice tab too

guest
You may want to rate the tab now too:
select rating
Wanna post a correction for this tab? Suggest correction