Oops, an error
Loading. Please wait.

Shaking tab

version 2
version 2

Whole song

3,255 views 3 this week
2 commentsread comments
1 2 3 4 5
1 last vote to show rating
add to favorites
×
Save as Personal and add changes to this tab that will be seen only by you. Learn more ›
×
You can save this tab as Personal to edit and correct it or add notes. All changes will be seen only by you. Learn more »
launch autoscroll
font size
0
reset
how to read this tab
guitar tuner
edit
Autoscroll
slow
fast
+/-
esc
set tempo
stop
Author
Difficulty
-------------------------------------------------------------------------------
                             Shaking - Sugarcult
-------------------------------------------------------------------------------
Tabbed by: Ash
Tuning: Standard

This is how I think its played although not all parts
of the lead guitar is complete.
Sugarcult is a great band, check em out.
This song's off the new Lights Out album...rocks!
Leave a comment too":)


Intro - 1st Guitar
e|-----------------------------------------|
B|-----------------------------------------|
G|-----------------------------------------|
D|-10-10-8-10-10-10-8--10-10-8-10-10-10-8--|
A|-----------------------------------------|
E|-----------------------------------------|

1st Guitar - Played Throughout Verse
e|---------------------------------------------------------------------------------|
B|---------------------------------------------------------------------------------|
G|-----------------------------------------10-10-8-10-10-10-8--10-10-8-10-10-10-8--|
D|--10-10-8-10-10-10-8--10-10-8-10-10-10-8-----------------------------------------|
A|---------------------------------------------------------------------------------|
E|---------------------------------------------------------------------------------|

Lead Guitar Comes In At 0.19mins
e|--5----5----5----5--------------|
B|---6----6----6----6-------------|
G|-5----5----5----5---------------|
D|--------------------------------|
A|--------------------------------|
E|--------------------------------|

Pre-Chorus - x2
e|---------------------------------------------|
B|---------------------------------------------|
G|---------------------------------------------|
D|-8-8-8-8-8-8-8-8--11-11-11-11-11-11-11-11----|
A|---------------------------------------------|
E|---------------------------------------------|

Just Before Chorus
e|--xxx---------------|
B|--xxx---------------|
G|--xxx---------------|
D|--xxx---------------|
A|--xxx---------------|
E|--xxx---------------|

Chorus - Hit Each Note 16 times.
e|----------------------------------------|
B|----------------------------------------|
G|----------66666666----------66666666----|
D|-66666666-66666666-66666666-66666666----|
A|-66666666-44444444-66666666-44444444----|
E|-44444444----------44444444-------------|

1st Guitar - Played Throughout Verse
e|---------------------------------------------------------------------------------|
B|---------------------------------------------------------------------------------|
G|-----------------------------------------10-10-8-10-10-10-8--10-10-8-10-10-10-8--|
D|--10-10-8-10-10-10-8--10-10-8-10-10-10-8-----------------------------------------|
A|---------------------------------------------------------------------------------|
E|---------------------------------------------------------------------------------|

Lead Guitar - Played Throughout Verse 
e|---5--------------5--------------5--------------5-------------|
B|-----6-5h6p5h6------6-5h6p5h6------6-5h6p5h6------6-5h6p5h6---|
G|-5--------------5--------------5--------------5---------------|
D|--------------------------------------------------------------|
A|--------------------------------------------------------------|
E|--------------------------------------------------------------|

Pre-Chorus - x2                              Just Before Chorus 
e|------------------------------------------|------------------|
B|------------------------------------------|------------------|
G|------------------------------------------|------------------|
D|-8-8-8-8-8-8-8-8--11-11-11-11-11-11-11-11-|-8/11-11-11-11----|
A|------------------------------------------|------------------|
E|------------------------------------------|------------------|

Chorus  
e|----------------------------------------------|
B|----------------------------------------------|
G|----------66666666----------66666666----------|
D|-66666666-66666666-66666666-66666666-66666666-|
A|-66666666-44444444-66666666-44444444-66666666-|
E|-44444444----------44444444----------44444444-|

e|--------------------------------------|
B|--------------------------------------|
D|66666666----------66666666 88888888---|
G|66666666-66666666-6666xxxx-xxxxxxxx---|
A|44444444-66666666-44444444-66666666---|
E|---------44444444---------------------|

e|--xxx---------------|
B|--xxx---------------|
G|--xxx---------------|
D|--xxx---------------|
A|--xxx---------------|
E|--xxx---------------|

Solo
e|-----------------------------------------------------|
B|-----------------------------------------------------|
G|-13-12-13-----13-12-13-------13-12-10-12-10---X2-----|
D|---------13-----------13-----------------------------|
A|-----------------------------------------------------|
E|-----------------------------------------------------|

e|------------------------------------------------|
B|------4-6-------4-6--------4-6-7/9-7-6-4-6~-----|
G|-5-8-5-----5-8-5------5-8-5---------------------|
D|------------------------------------------------|
A|------------------------------------------------|
E|------------------------------------------------|

E|--------------------------------------------------------|
B|------4-6--------4-6--------4-6-7/9-7-6-4-7/9-7-6-4\1---|
G|-5-8-5------5-8-5------5-8-5----------------------------|
D|--------------------------------------------------------|
A|--------------------------------------------------------|
E|--------------------------------------------------------|

Bridge
e|-----------------------------------------------------------------------------------|
B|-----------------------------------------------------------------------------------|
G|-----------------------------------------10-10-8-10-10-10-8--10-10-8-10-10-8-------|
D|--10-10-8-10-10-10-8--10-10-8-10-10-10-8-------------------------------------------|
A|-----------------------------------------------------------------------------------|
E|-----------------------------------------------------------------------------------|

Chorus 2
e|----------------------------------------|
B|----------------------------------------|
G|----------66666666----------66666666----|
D|-66666666-66666666-66666666-66666666----|
A|-66666666-44444444-66666666-44444444----|
E|-44444444----------44444444-------------|

e|----------------------------------------|
B|----------------------------------------|
G|-------------------66666666-88888888----|
D|-66666666-33333333-66666666-88888888----|
A|-66666666-33333333-44444444-66666666----|
E|-44444444-11111111----------------------|

Outro
e|----------------------------------------------------------------------------|
B|----------------------------------------------------------------------------|
G|----------66666666----------66668888----------66666666----------66666666 ---|
D|-66666666-66666666-66666666-66668888-66666666-66666666-66666666-66666666-6~-|
A|-66666666-44444444-66666666-44446666-66666666-44444444-66666666-44444444-6~-|
E|-44444444----------44444444----------44444444----------44444444----------4~-|


| /  slide up
| \  slide down
| h  hammer-on
| p  pull-off
| ~  vibrato
| +  harmonic
| x  Mute note
===============================================================================

Suggest correction
Creating personal tab
Creating personal tab
You can edit any tab online and save it as your Personal.

You can edit, replace or remove any tab part or add personal notes – all changes will be seen only by you.

Personal tabs can be accessed anytime from any device, even offline.
Learn more »
Give kudos to tab author, rate the tab!
1 2 3 4 5
comments
print report bad tab
2 comments total.
0 reply
kian89 262 Feb 22, 2011 01:51 AM

You are missing the lower note in the intro part

0 reply
ninerman13 322 May 01, 2012 02:23 PM

The real song appears to be played in a half step down tuning; then you can play the lower note more easily with open A and open D strings.

guest
You may want to rate the tab now too:
select rating
Wanna post a correction for this tab? Suggest correction