Oops, an error
Loading. Please wait.

Stuck In America bass

version 1
version 1

Whole song

Interactive

1,548 views 6 this week
no commentswrite comment
1 2 3 4 5
2 more votes to show rating
add to favorites
×
Save as Personal and add changes to this tab that will be seen only by you. Learn more ›
×
You can save this tab as Personal to edit and correct it or add notes. All changes will be seen only by you. Learn more »
launch autoscroll
font size
0
reset
guitar tuner
edit
Autoscroll
slow
fast
+/-
esc
set tempo
stop
Author
+++++++++++++++++++++++++++++++
| Sugarcult- Stuck In America |
+++++++++++++++++++++++++++++++

EADG

Intro
"Today..I changed.."
1.
G|----------------------------------------------|
D|----------------------------------------------|
A|-------------6~----3~----------------6~----3~-|
E|-6~----1~----------------6~----1~-------------|

2.
G|-----------------------------------------|
D|-----------------------------------------|
A|-----------6666-6666-----------6666-6666-|
E|-6666-1111-----------6666-1111-----------|

Verse
"Today I changed.."
3.
G|-------------------------------------------------------------------------|
D|-------------------------------------------------------------------------|
A|-------------------66666666-33333333-------------------66666666-33333333-|
E|-66666666-11111111-------------------66666666-11111111-------------------|

"Everybody's talkin 'bout.."
4.
G|-------------------------------------------------------------------------|
D|-------------------------------------------------------------------------|
A|-----------3333-6666-----------3333-6666-----------3333-6666----------6~-|
E|-6666-1111-----------6666-1111-----------6666-1111-----------6666-1-1----|

Chorus
"Stuck in America.."
5.
G|-------------------------------------------------------------------------|
D|-------------------------------------------------------------------------|
A|----------66666666-33333333-66666666----------66666666-33333333-66666666-|
E|-66666666----------------------------66666666----------------------------|

Outro
6.
G|-----------------------------------------|
D|-----------------------------------------|
A|-----------6666-6666-----------6666-6666-|
E|-6666-1111-----------6666-1111-----------|

Verse
"Today I changed.."
7.
G|-------------------------------------------------------------------------|
D|-------------------------------------------------------------------------|
A|-------------------66666666-33333333-------------------66666666-33333333-|
E|-66666666-11111111-------------------66666666-11111111-------------------|

"Everyone's talkin 'bout.."
8.
G|---------------------------------------------------------------------------|
D|---------------------------------------------------------------------------|
A|-----------3333-6666-----------3333-6666-----------3333-6666------------6~-|
E|-6666-1111-----------6666-1111-----------6666-1111-----------6666-1~-1~----|

Chorus
"Stuck in America.."
9.
G|-------------------------------------------------------------------------|
D|-------------------------------------------------------------------------|
A|----------66666666-33333333-66666666----------66666666-33333333-66666666-|
E|-66666666----------------------------66666666----------------------------|

Outro
"Today.."
10.
G|----------------------------------------------------------------|
D|----------------------------------------------------------------|
A|---------666x----333x----666x------------666x---333x----666x----|
E|-666x----------------------------666x---------------------------|

11.
G|-------------------------------------------------------------------------|
D|-------------------------------------------------------------------------|
A|----------66666666-33333333-66666666----------66666666-33333333-66666666-|
E|-66666666----------------------------66666666----------------------------|


12.
G|-------------------------------------|
D|-------------------------------------|
A|-------------------------------------|
E|-66666666-66666666-66666666-66666666-|

"Everyone is talkin 'bout.."
13.
G|-------------------------------------------------------------------|
D|-------------------------------------------------------------------|
A|-------------------------------------------------------------------|
E|-66666666-66666666-66666666-66666666-66666666-66666666-66666666-6x-|

Chorus
"Stuck in America.."
14.
G|-------------------------------------------------------------------------|
D|-------------------------------------------------------------------------|
A|----------66666666-33333333-66666666----------66666666-33333333-66666666-|
E|-66666666----------------------------66666666----------------------------|

"Stuck in America.."
15.
G|-------------------------------------------------------------------------|
D|-------------------------------------------------------------------------|
A|----------66666666-33333-5--66666666----------66666666-33333-5--66666666-|
E|-66666666----------------------------66666666----------------------------|

Outro
"Get away.."
16.
G|---------------------------------------------------------------------------------|
D|---------------------------------------------------------------------------------|
A|-----------6666-6666-----------6666-6666-----------6666-6666-----------6666-6666-|
E|-6666-1111-----------6666-1111-----------6666-1111-----------6666-1111-----------|

"Today I Changed.."
17.
G|---------------------------------------|
D|---------------------------------------|
A|----------------6~----------------6-6x-|
E|----6~----1~---------------------------|

Lyrics:

Today, I changed
It's too late
Cause everyone stayed the same
I'm gone, so long
Break out, cause I'm better off on my own

Today, I changed
It's too late
Cause every town feels the same
I'm different and you're distant
Add it up and it makes no difference

Everybody's talking about blowing up the neighborhood
Everybody's gonna break it up today
Everybody's talking about blowing up the neighborhood
Runnin just to get away

Stuck in America
Stuck in America
I'm lost in America
Stuck in America

Today, I changed
New town with the same old face
One way to shake this place that I can't escape

Today, today

Get away, get away, get away, get away
all that shit that you put me through

Today, I changed


+++++++++++++++++++++++++++++++++
| RaiLeff                       |
| Underground__Dora@Hotmail.Com |
+++++++++++++++++++++++++++++++++

            
            
Suggest correction
Creating personal tab
Creating personal tab
You can edit any tab online and save it as your Personal.

You can edit, replace or remove any tab part or add personal notes – all changes will be seen only by you.

Personal tabs can be accessed anytime from any device, even offline.
Learn more »
Give kudos to tab author, rate the tab!
1 2 3 4 5
comments
print report bad tab
guest
You may want to rate the tab now too:
select rating
Wanna post a correction for this tab? Suggest correction